Song name
# A B C D E F G H I J K L M N O P Q R S T U V W X Y Z

Fatso Jetson - Nightmares Are Essential tab

Nightmares Are Essential by Fatso Jetson.
This song is from the album "Stinky Little Gods".
I've tabbed this the way I play it.
Listen to the song to understand the rhythm and timing of the notes used.
This is played in standard tuning.

  
e|----------------------------------------------------------|
B|----------------------------------------------------------|
G|----------------------------------------------------------|
D|-----6b-------6b-------6b-------6----7-7-7----------------|
A|---5----5---5----5---5----5---5---5--7-7-7----------------|
E|-0--------0--------0--------0--------5-5-5----------------|
  P.M      P.M      P.M      P.M

e|----------------------------------------------------------|
B|----------------------------------------------------------|
G|----------------------------------------------------------|
D|-----6b-------6b-------6b-------6----7-7-7----------------|
A|---5----5---5----5---5----5---5---5--7-7-7----------------|
E|-0--------0--------0--------0--------5-5-5----------------|
  P.M      P.M      P.M      P.M

e|----------------------------------------------------------|
B|----------------------------------------------------------|
G|----------------------------------------------------------|
D|-----6b-------6b-------6b-------6----7-7-7----------------|
A|---5----5---5----5---5----5---5---5--7-7-7----------------|
E|-0--------0--------0--------0--------5-5-5----------------|
  P.M      P.M      P.M      P.M

e|----------------------------------------------------------|
B|----------------------------------------------------------|
G|-------------------------------------------------5-7-8----|
D|-----6b-------6b-------6b-------6----7-7-7-7-7-7-5-7-8----|
A|---5----5---5----5---5----5---5---5--7-7-7-7-7-7-3-5-6----|
E|-0--------0--------0--------0--------5-5-5-5-5-5----------|
  P.M      P.M      P.M      P.M

e|----------------------------------------------------------|
B|----------------------------------------------------------|
G|-------------5-7-8--------------5-7-8--------------5-/8---|
D|-7-7-7-7-7-7-5-7-8--7-7-7-7-7-7-5-7-8--7-7-7-7-7-7-5-/8---|
A|-7-7-7-7-7-7-3-5-6--7-7-7-7-7-7-3-5-6--7-7-7-7-7-7-3-/6---|
E|-5-5-5-5-5-5--------5-5-5-5-5-5--------5-5-5-5-5-5--------|

e|----------------------------------------------------------|
B|----------------------------------------------------------|
G|----------------------------------------------------------|
D|-----6b-------6b-------6b-------6----7-7-7----------------|
A|---5----5---5----5---5----5---5---5--7-7-7----------------|
E|-0--------0--------0--------0--------5-5-5----------------|
  P.M      P.M      P.M      P.M

e|----------------------------------------------------------|
B|----------------------------------------------------------|
G|----------------------------------------------------------|
D|-----6b-------6b-------6b-------6----7-7-7----------------|
A|---5----5---5----5---5----5---5---5--7-7-7----------------|
E|-0--------0--------0--------0--------5-5-5----------------|
  P.M      P.M      P.M      P.M

e|----------------------------------------------------------|
B|----------------------------------------------------------|
G|----------------------------------------------------------|
D|-----6b-------6b-------6b-------6----7-7-7----------------|
A|---5----5---5----5---5----5---5---5--7-7-7----------------|
E|-0--------0--------0--------0--------5-5-5----------------|
  P.M      P.M      P.M      P.M

e|----------------------------------------------------------|
B|----------------------------------------------------------|
G|-------------------------------------------------5-7-8----|
D|-----6b-------6b-------6b-------6----7-7-7-7-7-7-5-7-8----|
A|---5----5---5----5---5----5---5---5--7-7-7-7-7-7-3-5-6----|
E|-0--------0--------0--------0--------5-5-5-5-5-5----------|
  P.M      P.M      P.M      P.M

e|----------------------------------------------------------|
B|----------------------------------------------------------|
G|-------------5-7-8--------------5-7-8--------------5-/8---|
D|-7-7-7-7-7-7-5-7-8--7-7-7-7-7-7-5-7-8--7-7-7-7-7-7-5-/8---|
A|-7-7-7-7-7-7-3-5-6--7-7-7-7-7-7-3-5-6--7-7-7-7-7-7-3-/6---|
E|-5-5-5-5-5-5--------5-5-5-5-5-5--------5-5-5-5-5-5--------|

e|----------------------------------------------------------|
B|----------------------------------------------------------|
G|----------------------------------------------------------|
D|-----6b-------6b-------6b-------6b-------6b-------6b------|
A|---5----5---5----5---5----5---5----5---5----5---5----5----|
E|-0--------0--------0--------0--------0--------0-----------|
  P.M      P.M      P.M      P.M      P.M      P.M      

e|----------------------------------------------------------|
B|----------------------------------------------------------|
G|----------------------------------------------------------|
D|-----6b-------6b-------6b-------6b-------6b-------6b------|
A|---5----5---5----5---5----5---5----5---5----5---5----5----|
E|-0--------0--------0--------0--------0--------0-----------|
  P.M      P.M                     

e|----------------------------------------------------------|
B|----------------------------------------------------------|
G|--------------------------------------------------5-7-8---|
D|-----6b-------6b-------6b-------6b----7-7-7-7-7-7-5-7-8---|
A|---5----5---5----5---5----5---5----5--7-7-7-7-7-7-3-5-6---|
E|-0--------0--------0--------0---------5-5-5-5-5-5---------|

e|--------------------------------------------------------0-|
B|--------------------------------------------------------0-|
G|-------------5-7-8--------------5-7-8--------------5-/8---|
D|-7-7-7-7-7-7-5-7-8--7-7-7-7-7-7-5-7-8--7-7-7-7-7-7-5-/8---|
A|-7-7-7-7-7-7-3-5-6--7-7-7-7-7-7-3-5-6--7-7-7-7-7-7-3-/6---|
E|-5-5-5-5-5-5--------5-5-5-5-5-5--------5-5-5-5-5-5--------|

e|----------------------------------------------------------|
B|----------------------------------------------------------|
G|----------------------------------------------------------|
D|----------------------------------------------------------|
A|-0-3-0-----3v----6------9----0-3-0-----3v----6---6---6----|
E|-------3-2----/5---5/-8---8--------3-2----/5---5---5---5--|

e|----------------------------------------------------------|
B|----------------------------------------------------------|
G|----------------------------------------------------------|
D|----------------------------------------------------------|
A|-0-3-0-----3v----6------9----0-3-0-----3v----6---6---6----|
E|-------3-2----/5---5/-8---8--------3-2----/5---5---5---5--|

e|----------------------------------------------------------|
B|----------------------------------------------------------|
G|------------------8-------------------5-------------------|
D|-7-7-7-7-7-7-7-7--8--7-7-7-7-7-7-7-7--5-------------------|
A|-7-7-7-7-7-7-7-7--6--7-7-7-7-7-7-7-7--3-------------------|
E|-5-5-5-5-5-5-5-5-----5-5-5-5-5-5-5-5----------------------|

e|----------------------------------------------------------|
B|----------------------------------------------------------|
G|------------------8-------------------5-------------------|
D|-7-7-7-7-7-7-7-7--8--7-7-7-7-7-7-7-7--5-------------------|
A|-7-7-7-7-7-7-7-7--6--7-7-7-7-7-7-7-7--3-------------------|
E|-5-5-5-5-5-5-5-5-----5-5-5-5-5-5-5-5----------------------|

e|------------------------------------------------------------|
B|------------------------------------------------------------|
G|------------------8-8-8-8-8-8-------------------5-5-5-5-5-5-|
D|-7-7-7-7-7-7-7-7--8-8-8-8-8-8--7-7-7-7-7-7-7-7--5-5-5-5-5-5-|
A|-7-7-7-7-7-7-7-7--6-6-6-6-6-6--7-7-7-7-7-7-7-7--3-3-3-3-3-3-|
E|-5-5-5-5-5-5-5-5---------------5-5-5-5-5-5-5-5--------------|

e|------------------------------------------------------------|
B|------------------------------------------------------------|
G|------------------8-8-8-8-8-8-------------------5-5-5-5-5-5-|
D|-7-7-7-7-7-7-7-7--8-8-8-8-8-8--7-7-7-7-7-7-7-7--5-5-5-5-5-5-|
A|-7-7-7-7-7-7-7-7--6-6-6-6-6-6--7-7-7-7-7-7-7-7--3-3-3-3-3-3-|
E|-5-5-5-5-5-5-5-5---------------5-5-5-5-5-5-5-5--------------|

e|----------------------------------------------------------|
B|----------------------------------------------------------|
G|---------5-5-5-5-7-7-7-7-8-8-8-8------------------8-------|
D|-7-7-7-7-5-5-5-5-7-7-7-7-8-8-8-8-7-7-7-7-7-7-7-7--8-------|
A|-7-7-7-7-3-3-3-3-5-5-5-5-6-6-6-6-7-7-7-7-7-7-7-7--6-------|
E|-5-5-5-5-------------------------5-5-5-5-5-5-5-5----------|

e|----------------------------------------------------------|
B|----------------------------------------------------------|
G|---------5-5-5-5-7-7-7-7-8-8-8-8------------------5-------|
D|-7-7-7-7-5-5-5-5-7-7-7-7-8-8-8-8-7-7-7-7-7-7-7-7--5-------|
A|-7-7-7-7-3-3-3-3-5-5-5-5-6-6-6-6-7-7-7-7-7-7-7-7--3-------|
E|-5-5-5-5-------------------------5-5-5-5-5-5-5-5----------|

e|----------------------------------------------------------|
B|----------------------------------------------------------|
G|-------------5-7-8--------------5-7-8--------------5-7-8--|
D|-7-7-7-7-7-7-5-7-8--7-7-7-7-7-7-5-7-8--7-7-7-7-7-7-5-7-8--|
A|-7-7-7-7-7-7-3-5-6--7-7-7-7-7-7-3-5-6--7-7-7-7-7-7-3-5-6--|
E|-5-5-5-5-5-5--------5-5-5-5-5-5--------5-5-5-5-5-5--------|

e|-------------------------------------------------------------|
B|-------------------------------------------------------------|
G|-------------5-/8--------------------------------------------|
D|-7-7-7-7-7-7-5-/8-----6b-------6b-------6b-------6----7-7-7\-|
A|-7-7-7-7-7-7-3-/6---5----5---5----5---5----5---5---5--7-7-7\-|
E|-5-5-5-5-5-5------0--------0--------0--------0--------5-5-5\-|
                   P.M      P.M      P.M      P.M


Used Tab Symbols
_____________________
 h  = Hammer On
 p  = Pull Off
 ~  = Sustain
 v  = Vibrato
 w  = Wide Vibrato
 b  = Bend
 hb = Bend Halfway
 /  = Slide Up
 \  = Slide Down
 *  = Trill
 x  = Muted Note
 H  = Harmonic
 t  = Right Hand Tap
 :  = Let Ring
P.M = Palm Mute
_____________________
Tap to rate this tab
 
# A B C D E F G H I J K L M N O P Q R S T U V W X Y Z