Song name
# A B C D E F G H I J K L M N O P Q R S T U V W X Y Z

Fatso Jetson - The Untimely Death Of The Keyboard Player tab

The Untimely Death of the Keyboard Player by Fatso Jetson.
This song is from the album "Flames for All".
I've tabbed this the way I play it.
Listen to the song to understand the rhythm and timing of the notes used.
This is played in Drop D tuning.



e|-----------------------------------------|
B|-111-444-333-222-66-55-888888888888888---|
G|-000-333-222-111-55-44-777777777777777---|
D|-----------------------------------------|
A|-----------------------------------------|
D|-----------------------------------------|

e|-----------------------------------------|
B|-----------------------------------------|
G|-----------------------------------------|
D|-111-444-333-222-6-5-888-888-888-888-888-|
A|-111-444-333-222-6-5-888-888-888-888-888-|
D|-111-444-333-222-6-5-888-888-888-888-888-|

e|-----------------------------------------|
B|-----------------------------------------|
G|-----------------------------------------|
D|-111-444-333-222-6-5-888-888-888-888-888-|
A|-111-444-333-222-6-5-888-888-888-888-888-|
D|-111-444-333-222-6-5-888-888-888-888-888-|

e|-----------------------------------------|
B|-----------------------------------------|
G|-----------------------------------------|
D|-111-444-333-222-6-5-888-888-888-888-888-|
A|-111-444-333-222-6-5-888-888-888-888-888-|
D|-111-444-333-222-6-5-888-888-888-888-888-|

e|-----------------------------------------|
B|-----------------------------------------|
G|-----------------------------------------|
D|-111-444-333-222-6-5-888-888-888-888-888-|
A|-111-444-333-222-6-5-888-888-888-888-888-|
D|-111-444-333-222-6-5-888-888-888-888-888-|

  Guitar 1          Guitar 2
e|-----------------|-------------------|
B|-----------------|--9----6----5---2--|
G|-----------------|--11b--8b---7b--4b-|
D|-11-11-8---7-7-4-|-------------------|
A|-11-11-8---7-7-4-|-------------------|
D|-11-11-8---7-7-4-|-------------------|

e|------------------------------------------|
B|--------3-------------------3-------------|
G|-555-5552------------555-5552-------------|
D|-555-5550------------555-5550-------------|
A|-333-333---3-5p3-----333-333---3-5p3------|
D|-----------------2b------------------2b---|

  Guitar 1          Guitar 2
e|-----------------|-------------------|
B|-----------------|--9----6----5---2--|
G|-----------------|--11b--8b---7b--4b-|
D|-11-11-8---7-7-4-|-------------------|
A|-11-11-8---7-7-4-|-------------------|
D|-11-11-8---7-7-4-|-------------------|

e|------------------------------------------|
B|--------3-------------------3-------------|
G|-555-5552------------555-5552-------------|
D|-555-5550------------555-5550-------------|
A|-333-333---3-5p3-----333-333---3-5p3------|
D|-----------------2b------------------2b---|

e|------------------------------------------|
B|--------3-------------------3:------------|
G|-555-5552------------555-5552:------------|
D|-555-5550------------555-5550:------------|
A|-333-333---3-5p3-----333-333--------------|
D|-----------------2b-----------------------|

e|-----------------------------------------|
B|-----------------------------------------|
G|-555-444-333-222-66-55-888888888888888---|
D|-555-444-333-222-66-55-888888888888888---|
A|-----------------------------------------|
D|-----------------------------------------|

e|-----------------------------------------|
B|-----------------------------------------|
G|-----------------------------------------|
D|-111-444-333-222-6-5-888-888-888-888-888-|
A|-111-444-333-222-6-5-888-888-888-888-888-|
D|-111-444-333-222-6-5-888-888-888-888-888-|

e|-----------------------------------------|
B|-----------------------------------------|
G|-----------------------------------------|
D|-111-444-333-222-6-5-888-888-888-888-888-|
A|-111-444-333-222-6-5-888-888-888-888-888-|
D|-111-444-333-222-6-5-888-888-888-888-888-|

e|-----------------------------------------|
B|-----------------------------------------|
G|-----------------------------------------|
D|-111-444-333-222-6-5-888-888-888-888-888-|
A|-111-444-333-222-6-5-888-888-888-888-888-|
D|-111-444-333-222-6-5-888-888-888-888-888-|

e|-----------------------------------------|
B|-----------------------------------------|
G|-----------------------------------------|
D|-111-444-333-222-6-5-888-888-888-888-888-|
A|-111-444-333-222-6-5-888-888-888-888-888-|
D|-111-444-333-222-6-5-888-888-888-888-888-|

  Guitar 1          Guitar 2
e|-----------------|-------------------|
B|-----------------|--9----6----5---2--|
G|-----------------|--11b--8b---7b--4b-|
D|-11-11-8---7-7-4-|-------------------|
A|-11-11-8---7-7-4-|-------------------|
D|-11-11-8---7-7-4-|-------------------|

e|------------------------------------------|
B|--------3-------------------3-------------|
G|-555-5552------------555-5552-------------|
D|-555-5550------------555-5550-------------|
A|-333-333---3-5p3-----333-333---3-5p3------|
D|-----------------2b------------------2b---|

  Guitar 1          Guitar 2
e|-----------------|-------------------|
B|-----------------|--9----6----5---2--|
G|-----------------|--11b--8b---7b--4b-|
D|-11-11-8---7-7-4-|-------------------|
A|-11-11-8---7-7-4-|-------------------|
D|-11-11-8---7-7-4-|-------------------|

e|------------------------------------------|
B|--------3-------------------3-------------|
G|-555-5552------------555-5552-------------|
D|-555-5550------------555-5550-------------|
A|-333-333---3-5p3-----333-333---3-5p3------|
D|-----------------2b------------------2b---|

e|------------------------------------------|
B|--------3-------------------3:------------|
G|-555-5552------------555-5552:------------|
D|-555-5550------------555-5550:------------|
A|-333-333---3-5p3-----333-333--------------|
D|-----------------2b-----------------------|
                              
e|----------------------------|
B|----------------------------|
G|-4-4---4-4--------4-4---4-4-|
D|-4-4---4-4--------4-4---4-4-|
A|-2-2-332-2-000-3332-2-332-2-|
D|-----33----000-333----33----|

  Guitar 1                     Guitar 2
e|----------------------------|------------------------------|
B|----------------------------|------------------------------|
G|-4-4---4-4--------4-4---4-4-|-----0h3----------------------|
D|-4-4---4-4--------4-4---4-4-|---3-----5-----------------7--|
A|-2-2-332-2-000-3332-2-332-2-|-5---------0-3p0--------------|
D|-----33----000-333----33----|-----------------5-5-3b-0-----|

  Guitar 1                                     Guitar 2
e|--------------------------------------------|--------------------------------|
B|-----------------------------------7b---5---|-5-6-5-5--5-5-5-6-5-5-7b---5----|
G|--------10-10---10-10--------10-10----6---6-|-------------------------6---6--|
D|--------10-10---10-10--------10-10----------|--------------------------------|
A|-000-9998--8--998--8--000-9998--8-----------|--------------------------------|
D|-000-999------99------000-999---------------|--------------------------------|

  Guitar 1                                     Guitar 2
e|--------------------------------------------|--------------------------------|
B|-----------------------------------7b---5---|-5-6-5-5--5-5-5-6-5-5-7b---5----|
G|--------10-10---10-10--------10-10----6---6-|-------------------------6---6--|
D|--------10-10---10-10--------10-10----------|--------------------------------|
A|-000-9998--8--998--8--000-9998--8-----------|--------------------------------|
D|-000-999------99------000-999---------------|--------------------------------|

  Guitar 1
e|---------------------------------------------------------------------|
B|---------------------------------------------------------------------|
G|--------4-4---4-4--------4-4---4-4--------4-4---4-4--------4-4---4-4-|
D|--------4-4---4-4--------4-4---4-4--------4-4---4-4--------4-4---4-4-|
A|-000-3332-2-332-2-000-3332-2-332-2-000-3332-2-332-2-000-3332-2-332-2-|
D|-000-333----33----000-333----33----000-333----33----000-333----33----|

 Guitar2
e|---------------------------------------------------------------------|
B|---------------------------------------------------------------------|
G|-----0h3-------------------------------0h3---------------------------|
D|---3-----5---------------------------3-----5-------------------------|
A|-5---------0-3p0-------------------5---------0-3p0-------------------|
D|-----------------5-5-3b-0:-------------------------5-5-3b-0:---------|

  Guitar 1                                     Guitar 2
e|--------------------------------------------|--------------------------------|
B|-----------------------------------7b---5---|-5-6-5-5--5-5-5-6-5-5-7b---5----|
G|--------10-10---10-10--------10-10----6---6-|-------------------------6---6--|
D|--------10-10---10-10--------10-10----------|--------------------------------|
A|-000-9998--8--998--8--000-9998--8-----------|--------------------------------|
D|-000-999------99------000-999---------------|--------------------------------|

  Guitar 1                                     Guitar 2
e|--------------------------------------------|--------------------------------|
B|-----------------------------------7b---5---|-5-6-5-5--5-5-5-6-5-5-7b---5----|
G|--------10-10---10-10--------10-10----6---6-|-------------------------6---6--|
D|--------10-10---10-10--------10-10----------|--------------------------------|
A|-000-9998--8--998--8--000-9998--8-----------|--------------------------------|
D|-000-999------99------000-999---------------|--------------------------------|

e|-----------------------------------------|
B|-----------------------------------------|
G|-----------------------------------------|
D|-111-444-333-222-6-5-888-888-888-888-888-|
A|-111-444-333-222-6-5-888-888-888-888-888-|
D|-111-444-333-222-6-5-888-888-888-888-888-|

e|-----------------------------------------|
B|-----------------------------------------|
G|-----------------------------------------|
D|-111-444-333-222-6-5-888-888-888-888-888-|
A|-111-444-333-222-6-5-888-888-888-888-888-|
D|-111-444-333-222-6-5-888-888-888-888-888-|

e|-----------------------------------------|
B|-----------------------------------------|
G|-----------------------------------------|
D|-111-444-333-222-6-5-888-888-888-888-888-|
A|-111-444-333-222-6-5-888-888-888-888-888-|
D|-111-444-333-222-6-5-888-888-888-888-888-|

e|-----------------------------------------|
B|-----------------------------------------|
G|-----------------------------------------|
D|-111-444-333-222-6-5-888-888-888-888-888-|
A|-111-444-333-222-6-5-888-888-888-888-888-|
D|-111-444-333-222-6-5-888-888-888-888-888-|

  Guitar 1          Guitar 2
e|-----------------|-------------------|
B|-----------------|--9----6----5---2--|
G|-----------------|--11b--8b---7b--4b-|
D|-11-11-8---7-7-4-|-------------------|
A|-11-11-8---7-7-4-|-------------------|
D|-11-11-8---7-7-4-|-------------------|

e|------------------------------------------|
B|--------3-------------------3-------------|
G|-555-5552------------555-5552-------------|
D|-555-5550------------555-5550-------------|
A|-333-333---3-5p3-----333-333---3-5p3------|
D|-----------------2b------------------2b---|

e|------------------------------------------|
B|--------3-------------------3:------------|
G|-555-5552------------555-5552:------------|
D|-555-5550------------555-5550:------------|
A|-333-333---3-5p3-----333-333--------------|
D|-----------------2b-----------------------|



Used Tab Symbols
_____________________
 h  = Hammer On
 p  = Pull Off
 ~  = Sustain
 v  = Vibrato
 w  = Wide Vibrato
 b  = Bend
 hb = Bend Halfway
 /  = Slide Up
 \  = Slide Down
 *  = Trill
 x  = Muted Note
 H  = Harmonic
 t  = Right Hand Tap
 :  = Let Ring
_____________________
Tap to rate this tab
# A B C D E F G H I J K L M N O P Q R S T U V W X Y Z