Song name
# A B C D E F G H I J K L M N O P Q R S T U V W X Y Z

Fatso Jetson - Iron Chef tab

Iron Chef by Fatso Jetson
This song is from the album "Cruel & Delicious".
I've tabbed this the way I play it.
Listen to the song to understand the rhythm and timing of the notes used.
This is played in Drop D tuning.



e|----------------------------------------------------------|
B|-------6-5----6-5-5-5-------------------------------------|
G|-0-5-7------3-----3-3-------------------------------------|
D|---------------------------7-----9-----7-----9-----7\-----|
A|----------------------------------------------------------|
D|-----------------------7-9---9-7---7-9---9-7---7-9--------|

e|----------------------------------------------------------|
B|-------6-5----6-5---5-6-5---------------------------------|
G|-0-5-7------3-----3---------------------------------------|
D|-------------------------------7-----9-----7-----9-----7\-|
A|----------------------------------------------------------|
D|---------------------------7-9---9-7---7-9---9-7---7-9----|

e|---------------------------------------------------------------------|
B|-------6-5----6-5-5-5------------------------------------------------|
G|-0-5-7------3-----3-3------------------------------------------------|
D|-----------------------------12-------14-------12-------14-------12\-|
A|---------------------------------------------------------------------|
D|-----------------------12-14----14-12----12-14----14-12----12-14-----|

e|----------------------------------------------------------|
B|-------6-5----6-5---5-6-5---------------------------------|
G|-0-5-7------3-----3---------------------------------------|
D|-------------------------------7-----9-----7-----9-----7\-|
A|----------------------------------------------------------|
D|---------------------------7-9---9-7---7-9---9-7---7-9----|

e|--------------------------------------------------------|
B|-------6-5----6-5-5-5----------------------6--6---5--5--|
G|-0-5-7------3-----3-3--------2-------------8b-8b--7b-7b-|
D|-----------------------3p0-----------2------------------|
A|---------------------------3---0-2-3---3-0--------------|
D|--------------------------------------------------------|

e|--------------------------------------------------------------------|
B|---------------------6--6---5--5-----------------------6--6---5--5--|
G|-------2-------------8b-8b--7b-7b--------2-------2-----8b-8b--7b-7b-|
D|-3p0-----------2-------------------3p0-------------3-2--------------|
A|-----3---0-2-3---3-0-------------------3---0-2-3--------------------|
D|--------------------------------------------------------------------|

                          
e|-----------------------|
B|-----------------------|
G|-------2-------2-------|
D|-3p0-----0-2-3---3-2/--|
A|-----3-----------------|
D|-----------------------|

  Guitar 1                   Guitar 2
e|-------------------------|-----------------------------------------|
B|-------------------------|-6-6--6-6--6-6--6-6--5-5--5-5--3-3--3-3--|
G|-------------------------|-8b8b-8b8b-8b8b-8b8b-7b7b-7b7b-5b5b-5b5b-|
D|-88-88-88-88-77-77-55-55-|-----------------------------------------|
A|-88-88-88-88-77-77-55-55-|-----------------------------------------|
D|-88-88-88-88-77-77-55-55-|-----------------------------------------|


e|------------------------------------------------------|
B|-3-3--------------------------------------------------|
G|-2-2--------------------------------------------------|
D|-0-0-----------------------------x-x-5-3--------------|
A|-----2h3-3-3-3-2-0---------------x-x-5-3--------------|
D|-------------------2h3-3-3-3-2-0-x-x-5-3--------------|

e|------------------------------------------------------|
B|-3-3--------------------------------------------------|
G|-2-2--------------------------------------------------|
D|-0-0-----------------------------x-x-5-3--------------|
A|-----2h3-3-3-3-2-0---------------x-x-5-3--------------|
D|-------------------2h3-3-3-3-2-0-x-x-5-3--------------|

e|------------------------------------------------------|
B|-/3-33------------------------------------------------|
G|-----2------------------------------------------------|
D|-----0-2h3-3-3-3-2-0---------------x-x-5-3------------|
A|---------------------2h3-3-3-3-2-0-x-x-5-3------------|
D|-----------------------------------x-x-5-3------------|

e|------------------------------------------------------|
B|-3-3--------------------------------------------------|
G|-2-2--------------------------------------------------|
D|-0-0-----------------------------x-x-5-3--------------|
A|-----2h3-3-3-3-2-0---------------x-x-5-3--------------|
D|-------------------2h3-3-3-3-2-0-x-x-5-3--------------|

e|------------------------------------------------------|
B|------------------------------------------------------|
G|------------------------------------------------------|
D|-6-6-6-33-3--6-6-6-33-3--6-6-6-33-3--6-6-6-33-3-------|
A|-6-6-6-33-3--6-6-6-33-3--6-6-6-33-3--6-6-6-33-3-------|
D|-6-6-6-33-3--6-6-6-33-3--6-6-6-33-3--6-6-6-33-3-------|

e|--------------------------------------------------------|
B|-------6--5v--6---5-6-----------------------------------|
G|-0-5-7----------3-----3---------------------------------|
D|-----------------------------7-----9-----7-----9-----7\-|
A|--------------------------------------------------------|
D|-------------------------7-9---9-7---7-9---9-7---7-9----|

e|--------------------------------------------------------|
B|-------6--5v--6---5-6-----------------------------------|
G|-0-5-7----------3-----3---------------------------------|
D|-----------------------------7-----9-----7-----9-----7\-|
A|--------------------------------------------------------|
D|-------------------------7-9---9-7---7-9---9-7---7-9----|

e|--------------------------------------------------------|
B|-------6--5v--6---5-6-----------------------------------|
G|-0-5-7----------3-----3---------------------------------|
D|-----------------------------7-----9-----7-----9-----7\-|
A|--------------------------------------------------------|
D|-------------------------7-9---9-7---7-9---9-7---7-9----|

e|--------------------------------------------------------|
B|-------6--5v--6---5-6-----------------------------------|
G|-0-5-7----------3-----3---------------------------------|
D|-----------------------------7-----9-----7-----9-----7\-|
A|--------------------------------------------------------|
D|-------------------------7-9---9-7---7-9---9-7---7-9----|

e|---------------------------------------------------------|
B|-------6--5v--6---5-6-----------------------6--6---5--5--|
G|-0-5-7----------3-----3-------2-------2-----8b-8b--7b-7b-|
D|------------------------3p0-----0-2-3---3-0--------------|
A|----------------------------3----------------------------|
D|---------------------------------------------------------|

e|-------------------------------------------------------------------|
B|---------------------6--6---5--5----------------------6--6---5--5--|
G|-------2-------------8b-8b--7b-7b--------2------2-----8b-8b--7b-7b-|
D|-3p0-----------2-------------------3p0------2-3---3-2--------------|
A|-----3---0-2-3---3-0-------------------3---------------------------|
D|-------------------------------------------------------------------|

e|-----------------------|
B|-----------------------|
G|-------2-------2-------|
D|-3p0-----0-2-3---3-2/--|
A|-----3-----------------|
D|-----------------------|

  Guitar 1                   Guitar 2
e|-------------------------|-----------------------------------------|
B|-------------------------|-6-6--6-6--6-6--6-6--5-5--5-5--3-3--3-3--|
G|-------------------------|-8b8b-8b8b-8b8b-8b8b-7b7b-7b7b-5b5b-5b5b-|
D|-88-88-88-88-77-77-55-55-|-----------------------------------------|
A|-88-88-88-88-77-77-55-55-|-----------------------------------------|
D|-88-88-88-88-77-77-55-55-|-----------------------------------------|


e|------------------------------------------------------|
B|-3-3--------------------------------------------------|
G|-2-2--------------------------------------------------|
D|-0-0-----------------------------x-x-5-3--------------|
A|-----2h3-3-3-3-2-0---------------x-x-5-3--------------|
D|-------------------2h3-3-3-3-2-0-x-x-5-3--------------|

e|------------------------------------------------------|
B|-3-3--------------------------------------------------|
G|-2-2--------------------------------------------------|
D|-0-0-----------------------------x-x-5-3--------------|
A|-----2h3-3-3-3-2-0---------------x-x-5-3--------------|
D|-------------------2h3-3-3-3-2-0-x-x-5-3--------------|

e|------------------------------------------------------|
B|-/3-33------------------------------------------------|
G|-----2------------------------------------------------|
D|-----0-2h3-3-3-3-2-0---------------x-x-5-3------------|
A|---------------------2h3-3-3-3-2-0-x-x-5-3------------|
D|-----------------------------------x-x-5-3------------|

e|------------------------------------------------------|
B|-3-3--------------------------------------------------|
G|-2-2--------------------------------------------------|
D|-0-0-----------------------------x-x-5-3--------------|
A|-----2h3-3-3-3-2-0---------------x-x-5-3--------------|
D|-------------------2h3-3-3-3-2-0-x-x-5-3--------------|

e|------------------------------------------------------|
B|------------------------------------------------------|
G|------------------------------------------------------|
D|-6-6-6-33-3--6-6-6-33-3--6-6-6-33-3--6-6-6-33-3-------|
A|-6-6-6-33-3--6-6-6-33-3--6-6-6-33-3--6-6-6-33-3-------|
D|-6-6-6-33-3--6-6-6-33-3--6-6-6-33-3--6-6-6-33-3-------|

e|------------------------------------------------------|
B|------------------------------------------------------|
G|------------------------------------------------------|
D|-88-88-88--88-99-99-99--99-55-55-55--55-33-33-33--33--|
A|-88-88-880-88-99-99-990-99-55-55-550-55-33-33-330-33--|
D|-88-88-880-88-99-99-990-99-55-55-550-55-33-33-330-33--|

e|------------------------------------------------------|
B|------------------------------------------------------|
G|------------------------------------------------------|
D|-88-88-88--88-99-99-99--99-55-55-55--55-33-33-33--33--|
A|-88-88-880-88-99-99-990-99-55-55-550-55-33-33-330-33--|
D|-88-88-880-88-99-99-990-99-55-55-550-55-33-33-330-33--|

e|------------------------------------------------------------------|
B|------------------------------------------------------------------|
G|------------------------------------------------------------------|
D|-8888888888888888999999999999999955555555555555553333333333333333-|
A|-8888888888888888999999999999999955555555555555553333333333333333-|
D|-8888888888888888999999999999999955555555555555553333333333333333-|

e|------------------------------------------------------------------|
B|------------------------------------------------------------------|
G|------------------------------------------------------------------|
D|-8888888888888888999999999999999955555555555555553333333333333333-|
A|-8888888888888888999999999999999955555555555555553333333333333333-|
D|-8888888888888888999999999999999955555555555555553333333333333333-|

e|------------------------------------------------------------------|
B|------------------------------------------------------------------|
G|------------------------------------------------------------------|
D|-8888888888888888999999999999999955555555555555553333333333333333-|
A|-8888888888888888999999999999999955555555555555553333333333333333-|
D|-8888888888888888999999999999999955555555555555553333333333333333-|

e|---------------------------------------------------------------------------------|
B|---------------------------------------------------------------------------------|
G|---------------------------------------------------------------------------------|
D|-88888888888888889999999999999999555555555555555533-33-33-33-33-33-33-33-33-33-3-|
A|-88888888888888889999999999999999555555555555555533-33-33-33-33-33-33-33-33-33-3-|
D|-88888888888888889999999999999999555555555555555533-33-33-33-33-33-33-33-33-33-3-|


Used Tab Symbols
_____________________
 h  = Hammer On
 p  = Pull Off
 ~  = Sustain
 v  = Vibrato
 w  = Wide Vibrato
 b  = Bend
 hb = Bend Halfway
 /  = Slide Up
 \  = Slide Down
 *  = Trill
 x  = Muted Note
 H  = Harmonic
 t  = Right Hand Tap
 :  = Let Ring
_____________________
Tap to rate this tab
# A B C D E F G H I J K L M N O P Q R S T U V W X Y Z