Song name
# A B C D E F G H I J K L M N O P Q R S T U V W X Y Z

Fatso Jetson - Captain Evil tab

Captain Evil by Fatso Jetson.
This song is from the album "Stinky Little Gods".
I've tabbed this the way I play it.
Listen to the song to understand the rhythm and timing of the notes used.
This is played in standard tuning.



e|------------------------------------------------------|
B|---------------------------------14\--14\--14\--14\---|
G|------------------------------------------------------|
D|------------------------------------------------------|
A|------------------------------------------------------|
E|-5-5-3-3-4-4-2-2-0-0-3-3-0-0-6-6----------------------|

e|------------------------------------------------------|
B|---------------------------------14\--14\--14\--14\---|
G|------------------------------------------------------|
D|------------------------------------------------------|
A|------------------------------------------------------|
E|-5-5-3-3-4-4-2-2-0-0-3-3-0-0-6-6----------------------|

e|------------------------------------------------------|
B|------------------------------------------------------|
G|------------------------------------------------------|
D|------------------------------------------------------|
A|-5-5-3-3-4-4-2-2-0-0-3-3-0-0-6-6----------------------|
E|------------------------------------------------------|

e|------------------------------------------------------|
B|------------------------------------------------------|
G|------------------------------------------------------|
D|------------------------------------------------------|
A|-5-5-3-3-4-4-2-2-0-0-3-3-0-0-6------------------------|
E|------------------------------------------------------|

e|------------------------------------------------------|
B|------------------------------------------------------|
G|------------------------------------------------------|
D|------------------------------------------------------|
A|------------------------------------------------------|
E|-5-5-3-3-4-4-2-2-0-0-3-3-0-0-6------------------------|

e|------------------------------------------------------|
B|------------------------------------------------------|
G|------------------------------------------------------|
D|------------------------------------------------------|
A|------------------------------------------------------|
E|-5-5-3-3-4-4-2-2-0-0-3-3-0-0-6------------------------|

e|----------------------------------------------------------|
B|----------------------------------------------------------|
G|----------------------------------------------------------|
D|-------------6---------------------------4----------------|
A|-7-7-6-6-5-5---7-7-6-6-5-5---5-5-4-4-3-3---5-5-4-4-3-3----|
E|---------------------------6---------------------------4/-|

e|------------------------------------------------------|
B|------------------------------------------------------|
G|----------------------------------------------10b-----|
D|-----12-12-----12-12-----15-----12-12-------9-----9---|
A|-----11-11-----11-11-----14-----11-11-----8-----------|
E|-0-0-------0-0-------0-0----0-0-------0-0-------------|
   P.M       P.M       P.M    P.M       P.M

e|------------------------------------------------------|
B|------------------------------------------------------|
G|----------------------------------------------10b-----|
D|-----12-12-----12-12-----15-----12-12-------9-----9---|
A|-----11-11-----11-11-----14-----11-11-----8-----------|
E|-0-0-------0-0-------0-0----0-0-------0-0-------------|
   P.M       P.M       P.M    P.M       P.M

e|------------------------------------------------------|
B|------------------------------------------------------|
G|----------------------------------------------10b-----|
D|-----12-12-----12-12-----15-----12-12-------9-----9---|
A|-----11-11-----11-11-----14-----11-11-----8-----------|
E|-0-0-------0-0-------0-0----0-0-------0-0-------------|
   P.M       P.M       P.M    P.M       P.M

e|------------------------------------------------------|
B|------------------------------------------------------|
G|----------------------------------------------10b-----|
D|-----12-12-----12-12-----15-----12-12-------9-----9---|
A|-----11-11-----11-11-----14-----11-11-----8-----------|
E|-0-0-------0-0-------0-0----0-0-------0-0-------------|
   P.M       P.M       P.M    P.M       P.M

e|------------------------------------------------------|
B|------------------------------------------------------|
G|-------------------7-6-5------------------------------|
D|-------------7-6-5------------------------------------|
A|-------7-6-5------------------------------------------|
E|-7-6-5------------------------------------------------|

For this next part I have tabbed the 2 guitars.

Guitar 1
e|------------------------------------------------------|
B|------------------------------------------------------|
G|------------------------------------------------------|
D|-7-7-5-5-6-6-4-4-----5-5-----8-8----------------------|
A|-7-7-5-5-6-6-4-4-----5-5-----8-8----------------------|
E|-5-5-3-3-4-4-2-2-0-0-3-3-0-0-6-6----------------------|

e|------------------------------------------------------|
B|------------------------------------------------------|
G|------------------------------------------------------|
D|-7-7-5-5-6-6-4-4-----5-5-----8-8----------------------|
A|-7-7-5-5-6-6-4-4-----5-5-----8-8----------------------|
E|-5-5-3-3-4-4-2-2-0-0-3-3-0-0-6-6----------------------|

e|------------------------------------------------------|
B|------------------------------------------------------|
G|-7-7-5-5-6-6-4-4-----5-5-----8-8----------------------|
D|-7-7-5-5-6-6-4-4-----5-5-----8-8----------------------|
A|-5-5-3-3-4-4-2-2-0-0-3-3-0-0-6-6----------------------|
E|------------------------------------------------------|

e|------------------------------------------------------|
B|------------------------------------------------------|
G|------------------------------------------------------|
D|-7-7-5-5-6-6-4-4-----5-5-----8-8----------------------|
A|-7-7-5-5-6-6-4-4-----5-5-----8-8----------------------|
E|-5-5-3-3-4-4-2-2-0-0-3-3-0-0-6-6----------------------|

e|------------------------------------------------------|
B|------------------------------------------------------|
G|------------------------------------------------------|
D|-------------6-6--------------------------------------|
A|-7-7-6-6-5-5-----5-5-4-4-3-3--------------------------|
E|-----------------------------4-4/---------------------|

Guitar 2
e|------------------------------------------------------|
B|-9--5--5--5--5---8---8----8---8---8-------------------|
G|----8b-8b-8b-8b--11b-11b--11b-11b-11b-----------------|
D|------------------------------------------------------|
A|------------------------------------------------------|
E|------------------------------------------------------|

e|------------------------------------------------------|
B|--11--11--11--11--11--11--11--11---11--11---11--------|
G|--14b-14b-14b-14b-14b-14b-14b-14b--14b-14b--14b-------|
D|------------------------------------------------------|
A|------------------------------------------------------|
E|------------------------------------------------------|

e|------------------------------------------------------|
B|-5--5---5--5--5--5---5--5--5--5-----------------------|
G|-8b-8b--8b-8b-8b-8b--8b-8b-8b-8b----------------------|
D|------------------------------------------------------|
A|------------------------------------------------------|
E|------------------------------------------------------|

e|------------------------------------------------------|
B|-12--12--12--12--12---11--11--11--11--11---5----------|
G|-15b-15b-15b-15b-15b--14b-14b-14b-14b-14b--8b---------|
D|------------------------------------------------------|
A|------------------------------------------------------|
E|------------------------------------------------------|

Now back to 1 guitar.

e|------------------------------------------------------|
B|------------------------------------------------------|
G|----------------------------------------------10b-----|
D|-----12-12-----12-12-----15-----12-12-------9-----9---|
A|-----11-11-----11-11-----14-----11-11-----8-----------|
E|-0-0-------0-0-------0-0----0-0-------0-0-------------|
   P.M       P.M       P.M    P.M       P.M

e|------------------------------------------------------|
B|------------------------------------------------------|
G|----------------------------------------------10b-----|
D|-----12-12-----12-12-----15-----12-12-------9-----9---|
A|-----11-11-----11-11-----14-----11-11-----8-----------|
E|-0-0-------0-0-------0-0----0-0-------0-0-------------|
   P.M       P.M       P.M    P.M       P.M

e|------------------------------------------------------|
B|------------------------------------------------------|
G|----------------------------------------------10b-----|
D|-----12-12-----12-12-----15-----12-12-------9-----9---|
A|-----11-11-----11-11-----14-----11-11-----8-----------|
E|-0-0-------0-0-------0-0----0-0-------0-0-------------|
   P.M       P.M       P.M    P.M       P.M

e|------------------------------------------------------|
B|------------------------------------------------------|
G|----------------------------------------------10b-----|
D|-----12-12-----12-12-----15-----12-12-------9-----9---|
A|-----11-11-----11-11-----14-----11-11-----8-----------|
E|-0-0-------0-0-------0-0----0-0-------0-0-------------|
   P.M       P.M       P.M    P.M       P.M

e|------------------------------------------------------|
B|------------------------------------------------------|
G|------------------------------------------------------|
D|-----10b-------10b-------12-12\-----------------------|
A|---9-----9---9-----9-----11-11\-----------------------|
E|-8---------8---------0-0------------------------------|
                       P.M

Used Tab Symbols
_____________________
 h  = Hammer On
 p  = Pull Off
 ~  = Sustain
 v  = Vibrato
 w  = Wide Vibrato
 b  = Bend
 hb = Bend Halfway
 /  = Slide Up
 \  = Slide Down
 *  = Trill
 x  = Muted Note
 H  = Harmonic
 t  = Right Hand Tap
 :  = Let Ring
P.M = Palm Mute
_____________________
Tap to rate this tab
# A B C D E F G H I J K L M N O P Q R S T U V W X Y Z