Song name
# A B C D E F G H I J K L M N O P Q R S T U V W X Y Z

Fatso Jetson - Builders And Collectors tab

Builders and Collectors by Fatso Jetson.
This song is from the album "Power of Three".
I've tabbed this the way I play it.
Listen to the song to understand the rhythm and timing of the notes used.
This is played in standard tuning.



e|------------------------------------------------------|
B|-------------------2b--------------------2b-2b--------|
G|-------------0-1-------------------0-1----------------|
D|-------3-2-0-----2-----------3-2-0-----2--------------|
A|------------------------------------------------------|
E|-3-2-0-----------------3-2-0--------------------------|

e|------------------------------------------------------|
B|-------------------2b--------------------2b-2b--------|
G|-------------0-1-------------------0-1----------------|
D|-------3-2-0-----2-----------3-2-0-----2--------------|
A|------------------------------------------------------|
E|-3-2-0-----------------3-2-0--------------------------|


e|------------------------------------------------------|
B|-----0-3-2-----3------------0-3-2-----3---------------|
G|-----------3-4---4----------------3-4---4-----2-------|
D|---4---------------2-3----4---------------2-3---0-----|
A|-2----------------------2-----------------------------|
E|------------------------------------------------------|

e|------------------------------------------------------|
B|-----0-3-2-----3------------0-3-2-----3---------------|
G|-----------3-4---4----------------3-4---4-----2-------|
D|---4---------------2-3----4---------------2-3---0-----|
A|-2----------------------2-----------------------------|
E|------------------------------------------------------|

e|---------------------------------------------------------|
B|---------------------------------------------------------|
G|---------------------------------------------------------|
D|---------------------------------------------------------|
A|-2-2-2-2-2-2-2-2-5-5-5-5-5-5-5-5-12-12-12-12-12-12-12-12-|
E|---------------------------------------------------------|


e|------------------------------------------------------|
B|------------------------------------------------------|
G|------------------------------------------------------|
D|------------------------------------------------------|
A|-8-8-8-8-8-8-8-8-2-2-2-2-2-2-2-2-5-5-5-5-5-5-5-5------|
E|------------------------------------------------------|

e|------------------------------------------------------|
B|------------------------------------------------------|
G|------------------------------------------------------|
D|------------------------------------------------------|
A|-12-12-12-12-12-12-12-12-6-6-6-6-6-6-6-6--------------|
E|------------------------------------------------------|

e|---------------------------------------------------------|
B|---------------------------------------------------------|
G|-4-4-4-4-4-4-4-4-7-7-7-7-7-7-7-7-14-14-14-14-14-14-14-14-|
D|-4-4-4-4-4-4-4-4-7-7-7-7-7-7-7-7-14-14-14-14-14-14-14-14-|
A|-2-2-2-2-2-2-2-2-5-5-5-5-5-5-5-5-12-12-12-12-12-12-12-12-|
E|---------------------------------------------------------|

e|---------------------------------------------------------|
B|---------------------------------------------------------|
G|-10-10-10-10-10-10-10-10-4-4-4-4-4-4-4-4-7-7-7-7-7-7-7-7-|
D|-10-10-10-10-10-10-10-10-4-4-4-4-4-4-4-4-7-7-7-7-7-7-7-7-|
A|-8--8--8--8--8--8--8--8--2-2-2-2-2-2-2-2-5-5-5-5-5-5-5-5-|
E|---------------------------------------------------------|

e|------------------------------------------------------|
B|------------------------------------------------------|
G|-----------------8-8-8-8-8-8-8-8----------------------|
D|-7-7-7-7-7-7-7-7-8-8-8-8-8-8-8-8----------------------|
A|-7-7-7-7-7-7-7-7-6-6-6-6-6-6-6-6----------------------|
E|-5-5-5-5-5-5-5-5--------------------------------------|

e|------------------------------------------------------|
B|-------------------2b--------------------2b-2b--------|
G|-------------0-1-------------------0-1----------------|
D|-------3-2-0-----2-----------3-2-0-----2--------------|
A|------------------------------------------------------|
E|-3-2-0-----------------3-2-0--------------------------|

e|------------------------------------------------------|
B|-------------------2b--------------------2b-2b--------|
G|-------------0-1-------------------0-1----------------|
D|-------3-2-0-----2-----------3-2-0-----2--------------|
A|------------------------------------------------------|
E|-3-2-0-----------------3-2-0--------------------------|

e|------------------------------------------------------|
B|-----0-3-2-----3------------0-3-2-----3---------------|
G|-----------3-4---4----------------3-4---4-----2-------|
D|---4---------------2-3----4---------------2-3---0-----|
A|-2----------------------2-----------------------------|
E|------------------------------------------------------|

e|------------------------------------------------------|
B|-----0-3-2-----3------------0-3-2-----3---------------|
G|-----------3-4---4----------------3-4---4-----2-------|
D|---4---------------2-3----4---------------2-3---0-----|
A|-2----------------------2-----------------------------|
E|------------------------------------------------------|

e|---------------------------------------------------------|
B|---------------------------------------------------------|
G|---------------------------------------------------------|
D|---------------------------------------------------------|
A|-2-2-2-2-2-2-2-2-5-5-5-5-5-5-5-5-12-12-12-12-12-12-12-12-|
E|---------------------------------------------------------|


e|------------------------------------------------------|
B|------------------------------------------------------|
G|------------------------------------------------------|
D|------------------------------------------------------|
A|-8-8-8-8-8-8-8-8-2-2-2-2-2-2-2-2-5-5-5-5-5-5-5-5------|
E|------------------------------------------------------|

e|------------------------------------------------------|
B|------------------------------------------------------|
G|------------------------------------------------------|
D|------------------------------------------------------|
A|-12-12-12-12-12-12-12-12-6-6-6-6-6-6-6-6--------------|
E|------------------------------------------------------|

e|---------------------------------------------------------|
B|---------------------------------------------------------|
G|-4-4-4-4-4-4-4-4-7-7-7-7-7-7-7-7-14-14-14-14-14-14-14-14-|
D|-4-4-4-4-4-4-4-4-7-7-7-7-7-7-7-7-14-14-14-14-14-14-14-14-|
A|-2-2-2-2-2-2-2-2-5-5-5-5-5-5-5-5-12-12-12-12-12-12-12-12-|
E|---------------------------------------------------------|

e|---------------------------------------------------------|
B|---------------------------------------------------------|
G|-10-10-10-10-10-10-10-10-4-4-4-4-4-4-4-4-7-7-7-7-7-7-7-7-|
D|-10-10-10-10-10-10-10-10-4-4-4-4-4-4-4-4-7-7-7-7-7-7-7-7-|
A|-8--8--8--8--8--8--8--8--2-2-2-2-2-2-2-2-5-5-5-5-5-5-5-5-|
E|---------------------------------------------------------|

e|------------------------------------------------------|
B|------------------------------------------------------|
G|-----------------8-8-8-8-8-8-8-8----------------------|
D|-7-7-7-7-7-7-7-7-8-8-8-8-8-8-8-8----------------------|
A|-7-7-7-7-7-7-7-7-6-6-6-6-6-6-6-6----------------------|
E|-5-5-5-5-5-5-5-5--------------------------------------|

e|------------------------------------------------------|
B|-------------------2b--------------------2b-2b--------|
G|-------------0-1-------------------0-1----------------|
D|-------3-2-0-----2-----------3-2-0-----2--------------|
A|------------------------------------------------------|
E|-3-2-0-----------------3-2-0--------------------------|

e|------------------------------------------------------|
B|-------------------2b--------------------2b-2b--------|
G|-------------0-1-------------------0-1----------------|
D|-------3-2-0-----2-----------3-2-0-----2--------------|
A|------------------------------------------------------|
E|-3-2-0-----------------3-2-0--------------------------|

e|------------------------------------------------------|
B|-----0-3---2h3p2----------0-3-2-----3-----------------|
G|-----------------3-/7-----------3-4---4---3-/7--------|
D|---4--------------------4---------------2-------------|
A|-2--------------------2-------------------------------|
E|------------------------------------------------------|

e|------------------------------------------------------|
B|------0-3---2h3p2------------3-----6---6---6----------|
G|------------------3-/7-7\4-4---4/7---7---7------------|
D|----4-------------------------------------------------|
A|--2---------------------------------------------------|
E|------------------------------------------------------|

e|----------------------------------------------------------|
B|-----0-3-2v-------3-------------------0-3--2h3p2-----3----|
G|--------------3-4---4----------------------------3-4---4--|
D|---4------------------2-3-0:--------4---------------------|
A|-2--------------------------------2-----------------------|
E|------------------------------13\-------------------------|

e|------------------------------------------------------|
B|----6---6---6--6-6-6\---------------------------------|
G|-/7---7---7----7-7-7\---------------------------------|
D|------------------------------------------------------|
A|----------------------2-2-2-2-2-2-2-2-5-5-5-5-5-5-5-5-|
E|------------------------------------------------------|

e|------------------------------------------------------|
B|------------------------------------------------------|
G|------------------------------------------------------|
D|------------------------------------------------------|
A|-12-12-12-12-12-12-12-12-8-8-8-8-8-8-8-8--------------|
E|------------------------------------------------------|

e|---------------------------------------------------------|
B|---------------------------------------------------------|
G|---------------------------------------------------------|
D|---------------------------------------------------------|
A|-2-2-2-2-2-2-2-2-5-5-5-5-5-5-5-5-12-12-12-12-12-12-12-12-|
E|---------------------------------------------------------|

e|------------------------------------------------------|
B|------------------------------------------------------|
G|-----------------4-4-4-4-4-4-4-4-7-7-7-7-7-7-7-7------|
D|-----------------4-4-4-4-4-4-4-4-7-7-7-7-7-7-7-7------|
A|-6-6-6-6-6-6-6-6-2-2-2-2-2-2-2-2-5-5-5-5-5-5-5-5------|
E|------------------------------------------------------|

e|------------------------------------------------------|
B|------------------------------------------------------|
G|-14-14-14-14-14-14-14-14-10-10-10-10-10-10-10-10------|
D|-14-14-14-14-14-14-14-14-10-10-10-10-10-10-10-10------|
A|-12-12-12-12-12-12-12-12-8--8--8--8--8--8--8--8-------|
E|------------------------------------------------------|

e|------------------------------------------------------|
B|------------------------------------------------------|
G|-4-4-4-4-4-4-4-4-7-7-7-7-7-7-7-7----------------------|
D|-4-4-4-4-4-4-4-4-7-7-7-7-7-7-7-7-7-7-7-7-7-7-7-7------|
A|-2-2-2-2-2-2-2-2-5-5-5-5-5-5-5-5-7-7-7-7-7-7-7-7------|
E|---------------------------------5-5-5-5-5-5-5-5------|

e|------------------------------------------------------|
B|------------------------------------------------------|
G|-8-8-8-8-8-8-8-8-4-4-4-4-4-4-4-4-7-7-7-7-7-7-7-7------|
D|-8-8-8-8-8-8-8-8-4-4-4-4-4-4-4-4-7-7-7-7-7-7-7-7------|
A|-6-6-6-6-6-6-6-6-2-2-2-2-2-2-2-2-5-5-5-5-5-5-5-5------|
E|------------------------------------------------------|

e|------------------------------------------------------|
B|------------------------------------------------------|
G|-14-14-14-14-14-14-14-14-10-10-10-10-10-10-10-10------|
D|-14-14-14-14-14-14-14-14-10-10-10-10-10-10-10-10------|
A|-12-12-12-12-12-12-12-12-8--8--8--8--8--8--8--8-------|
E|------------------------------------------------------|

e|------------------------------------------------------|
B|------------------------------------------------------|
G|-4-4-4-4-4-4-4-4-7-7-7-7-7-7-7-7----------------------|
D|-4-4-4-4-4-4-4-4-7-7-7-7-7-7-7-7-7-7-7-7-7-7-7-7------|
A|-2-2-2-2-2-2-2-2-5-5-5-5-5-5-5-5-7-7-7-7-7-7-7-7------|
E|---------------------------------5-5-5-5-5-5-5-5------|

e|------------------------------------------------------|
B|------------------------------------------------------|
G|-8-8-8-8-8-8-8-8-4-4-4-4-4-4-4-4-7-7-7-7-7-7-7-7------|
D|-8-8-8-8-8-8-8-8-4-4-4-4-4-4-4-4-7-7-7-7-7-7-7-7------|
A|-6-6-6-6-6-6-6-6-2-2-2-2-2-2-2-2-5-5-5-5-5-5-5-5------|
E|------------------------------------------------------|

e|------------------------------------------------------|
B|------------------------------------------------------|
G|-14-14-14-14-14-14-14-14-10-10-10-10-10-10-10-10------|
D|-14-14-14-14-14-14-14-14-10-10-10-10-10-10-10-10------|
A|-12-12-12-12-12-12-12-12-8--8--8--8--8--8--8--8-------|
E|------------------------------------------------------|

e|------------------------------------------------------|
B|------------------------------------------------------|
G|-4-4-4-4-4-4-4-4-7-7-7-7-7-7-7-7----------------------|
D|-4-4-4-4-4-4-4-4-7-7-7-7-7-7-7-7-7-7-7-7-7-7-7-7------|
A|-2-2-2-2-2-2-2-2-5-5-5-5-5-5-5-5-7-7-7-7-7-7-7-7------|
E|---------------------------------5-5-5-5-5-5-5-5------|

e|------------------------------------------------------|
B|------------------------------------------------------|
G|-8-8-8-8-8-8-8-8-4-4-4-4-4-4-4-4-7-7-7-7-7-7-7-7------|
D|-8-8-8-8-8-8-8-8-4-4-4-4-4-4-4-4-7-7-7-7-7-7-7-7------|
A|-6-6-6-6-6-6-6-6-2-2-2-2-2-2-2-2-5-5-5-5-5-5-5-5------|
E|------------------------------------------------------|

e|------------------------------------------------------|
B|------------------------------------------------------|
G|-14-14-14-14-14-14-14-14-10-10-10-10-10-10-10-10------|
D|-14-14-14-14-14-14-14-14-10-10-10-10-10-10-10-10------|
A|-12-12-12-12-12-12-12-12-8--8--8--8--8--8--8--8-------|
E|------------------------------------------------------|

e|------------------------------------------------------|
B|------------------------------------------------------|
G|-4-4-4-4-4-4-4-4-7-7-7-7-7-7-7-7----------------------|
D|-4-4-4-4-4-4-4-4-7-7-7-7-7-7-7-7-7-7-7-7-7-7-7-7------|
A|-2-2-2-2-2-2-2-2-5-5-5-5-5-5-5-5-7-7-7-7-7-7-7-7------|
E|---------------------------------5-5-5-5-5-5-5-5------|

e|------------------------------------------------------|
B|------------------------------------------------------|
G|-8-8-8-8-8-8-8-8--------------------------------------|
D|-8-8-8-8-8-8-8-8--------------------------------------|
A|-6-6-6-6-6-6-6-6--------------------------------------|
E|------------------------------------------------------|

e|------------------------------------------------------|
B|-------------------2b--------------------2b-2b--------|
G|-------------0-1-------------------0-1----------------|
D|-------3-2-0-----2-----------3-2-0-----2--------------|
A|------------------------------------------------------|
E|-3-2-0-----------------3-2-0--------------------------|

e|------------------------------------------------------|
B|-------------------2b--------------------2b-----------|
G|-------------0-1-------------------0-1----------------|
D|-------3-2-0-----2-----------3-2-0-----2--------------|
A|------------------------------------------------------|
E|-3-2-0-----------------3-2-0--------------------------|


Used Tab Symbols
_____________________
 h  = Hammer On
 p  = Pull Off
 ~  = Sustain
 v  = Vibrato
 w  = Wide Vibrato
 b  = Bend
 hb = Bend Halfway
 /  = Slide Up
 \  = Slide Down
 *  = Trill
 x  = Muted Note
 H  = Harmonic
 t  = Right Hand Tap
 :  = Let Ring
_____________________
Tap to rate this tab
# A B C D E F G H I J K L M N O P Q R S T U V W X Y Z