Song name
# A B C D E F G H I J K L M N O P Q R S T U V W X Y Z

Fatso Jetson - Phantom Of The Opry tab

Phantom of the Opry by Fatso Jetson.
This song is from the album "Power of Three".
I've tabbed this the way I play it.
Listen to the song to understand the rhythm and timing of the notes used.
This is played in standard tuning.



e|------------------------------------------------------------------|
B|------------------------------------------------------------------|
G|-------------------------55555555--------77777777-----------------|
D|-2222222244444444777777775555555544444444777777776666666633333333-|  
A|-2222222244444444777777773333333344444444555555556666666633333333-|
E|-000000002222222255555555--------22222222--------4444444411111111-|
   
e|------------------------------------------------------------------|
B|------------------------------------------------------------------| You can play
G|-------------------------55555555--------77777777-----------------| this riff & above 
D|-222222224444444477777777555555554444444477777777666666663333-----| with the part below 
A|-222222224444444477777777333333334444444455555555666666663333-----|
E|-000000002222222255555555--------22222222--------444444441111-----|

e|----------------------------------------------------|
B|-------2h3-/5------------2h3-/5---------------------|
G|-----2--------4-3------2--------4p3---3-------------|
D|-0-2---------------0-2--------------5---5-----------|
A|----------------------------------------------------|
E|----------------------------------------------------|

e|----------------------------------------------------|
B|-------2h3-/5------------3-3-3--5-5-5---------------|
G|-----2--------4p3---3----6b6b6b-8b8b8b--------------|
D|-0-2--------------5---5-----------------------------|
A|----------------------------------------------------|
E|----------------------------------------------------|

e|----------------------------------------------------|
B|-------2h3-/5------------2h3-/5---------------------|
G|-----2--------4-3------2--------4p3---3-------------|
D|-0-2---------------0-2--------------5---5-----------|
A|----------------------------------------------------|
E|----------------------------------------------------|

e|----------------------------------------------------|
B|-------2h3-/5------------3-3-3--5-5-5---------------|
G|-----2--------4p3---3----6b6b6b-8b8b8b--------------|
D|-0-2--------------5---5-----------------------------|
A|----------------------------------------------------|
E|----------------------------------------------------|
  
  Guitar 1
e|----------------------------------------------------|
B|----------------------------------------------------|
G|----------------------------------------------------|
D|----------------------------------------------------|
A|-10-10-10-10-10-10-10\-6-6-6-6-6-6-6\-3-3-3-3-3-3-3-|
E|----------------------------------------------------|

  Guitar 2
e|----------------------------------------------------|
B|----------10-----------------6--------------3-------|
G|----------13b----------------9b-------------6b------|
D|----------------------------------------------------|
A|----------------------------------------------------|
E|----------------------------------------------------|

  Guitar 1
e|----------------------------------------------------|
B|----------------------------------------------------|
G|----------------------------------------------------|
D|-4-4-4--8-8-8--11-11-11-----------------------------|
A|-4-4-4--8-8-8--11-11-11-----------------------------|
E|-2-2-2--6-6-6--9--9--9------------------------------|

  Guitar 2
e|----------------------------------------------------|
B|-2-2-2--6-6-6--9--9--9------------------------------|
G|-5b5b5b-9b9b9b-12b12b12b----------------------------|
D|----------------------------------------------------|
A|----------------------------------------------------|
E|----------------------------------------------------|

  Guitar 1
e|----------------------------------------------------|
B|----------------------------------------------------|
G|----------------------------------------------------|
D|----------------------------------------------------|
A|-10-10-10-10-10-10-10\-6-6-6-6-6-6-6\-3-3-3-3-3-3-3-|
E|----------------------------------------------------|

  Guitar 2
e|----------------------------------------------------|
B|----------10-----------------6--------------3-------|
G|----------13b----------------9b-------------6b------|
D|----------------------------------------------------|
A|----------------------------------------------------|
E|----------------------------------------------------|

  Guitar 1
e|----------------------------------------------------|
B|----------------------------------------------------|
G|----------------------------------------------------|
D|-4-4-4--8-8-8--11-11-11-----------------------------|
A|-4-4-4--8-8-8--11-11-11-----------------------------|
E|-2-2-2--6-6-6--9--9--9------------------------------|

  Guitar 2
e|----------------------------------------------------|
B|-2-2-2--6-6-6--9--9--9------------------------------|
G|-5b5b5b-9b9b9b-12b12b12b----------------------------|
D|----------------------------------------------------|
A|----------------------------------------------------|
E|----------------------------------------------------|

  Guitar 1
e|----------------------------------------------------|
B|----------------------------------------------------|
G|----------------------------------------------------|
D|----------------------------------------------------|
A|-10-10-10-10-10-10-10\-6-6-6-6-6-6-6\-3-3-3-3-3-3-3-|
E|----------------------------------------------------|

  Guitar 2
e|----------------------------------------------------|
B|----------10-----------------6--------------3-------|
G|----------13b----------------9b-------------6b------|
D|----------------------------------------------------|
A|----------------------------------------------------|
E|----------------------------------------------------|

e|----------------------------------------------------|
B|-----4b-----4b-----4b-------------------------------|
G|-----4b-----4b-----4b-------------------------------|
D|-4-4----4-4----4-4----------------------------------|
A|-4-4----4-4----4-4----------------------------------|
E|-2-2----2-2----2-2----------------------------------|

e|------------------------------------------------------------------|
B|------------------------------------------------------------------|
G|-------------------------55555555--------77777777-----------------|
D|-2222222244444444777777775555555544444444777777776666666633333333-|
A|-2222222244444444777777773333333344444444555555556666666633333333-|
E|-000000002222222255555555--------22222222--------4444444411111111-|

e|----------------------------------------------------|
B|-------2h3-/5------------2h3-/5---------------------|
G|-----2--------4-3------2--------4p3---3-------------|
D|-0-2---------------0-2--------------5---5-----------|
A|----------------------------------------------------|
E|----------------------------------------------------|

e|----------------------------------------------------|
B|-------2h3-/5------------3-3-3--5-5-5---------------|
G|-----2--------4p3---3----6b6b6b-8b8b8b--------------|
D|-0-2--------------5---5-----------------------------|
A|----------------------------------------------------|
E|----------------------------------------------------|

e|----------------------------------------------------|
B|-------2h3-/5------------2h3-/5---------------------|
G|-----2--------4-3------2--------4p3---3-------------|
D|-0-2---------------0-2--------------5---5-----------|
A|----------------------------------------------------|
E|----------------------------------------------------|

e|----------------------------------------------------|
B|-------2h3-/5------------3-3-3--5-5-5---------------|
G|-----2--------4p3---3----6b6b6b-8b8b8b--------------|
D|-0-2--------------5---5-----------------------------|
A|----------------------------------------------------|
E|----------------------------------------------------|

  Guitar 1
e|----------------------------------------------------|
B|----------------------------------------------------|
G|----------------------------------------------------|
D|----------------------------------------------------|
A|-10-10-10-10-10-10-10\-6-6-6-6-6-6-6\-3-3-3-3-3-3-3-|
E|----------------------------------------------------|

  Guitar 2
e|----------------------------------------------------|
B|----------10-----------------6--------------3-------|
G|----------13b----------------9b-------------6b------|
D|----------------------------------------------------|
A|----------------------------------------------------|
E|----------------------------------------------------|

  Guitar 1
e|----------------------------------------------------|
B|----------------------------------------------------|
G|----------------------------------------------------|
D|-4-4-4--8-8-8--11-11-11-----------------------------|
A|-4-4-4--8-8-8--11-11-11-----------------------------|
E|-2-2-2--6-6-6--9--9--9------------------------------|

  Guitar 2
e|----------------------------------------------------|
B|-2-2-2--6-6-6--9--9--9------------------------------|
G|-5b5b5b-9b9b9b-12b12b12b----------------------------|
D|----------------------------------------------------|
A|----------------------------------------------------|
E|----------------------------------------------------|

  Guitar 1
e|----------------------------------------------------|
B|----------------------------------------------------|
G|----------------------------------------------------|
D|----------------------------------------------------|
A|-10-10-10-10-10-10-10\-6-6-6-6-6-6-6\-3-3-3-3-3-3-3-|
E|----------------------------------------------------|

  Guitar 2
e|----------------------------------------------------|
B|----------10-----------------6--------------3-------|
G|----------13b----------------9b-------------6b------|
D|----------------------------------------------------|
A|----------------------------------------------------|
E|----------------------------------------------------|

  Guitar 1
e|----------------------------------------------------|
B|----------------------------------------------------|
G|----------------------------------------------------|
D|-4-4-4--8-8-8--11-11-11-----------------------------|
A|-4-4-4--8-8-8--11-11-11-----------------------------|
E|-2-2-2--6-6-6--9--9--9------------------------------|

  Guitar 2
e|----------------------------------------------------|
B|-2-2-2--6-6-6--9--9--9------------------------------|
G|-5b5b5b-9b9b9b-12b12b12b----------------------------|
D|----------------------------------------------------|
A|----------------------------------------------------|
E|----------------------------------------------------|

e|------------------------------------------------------------------|
B|------------------------------------------------------------------|
G|------------------------------------------------------------------|
D|-----------7---------------7---------------7---------------7------|
A|-----9-8-6---5h6-----9-8-6---5h6-----9-8-6---5h6-----9-8-6---5h6--|
E|-7-7-------------7-7-------------7-7-------------7-7--------------|

e|------------------------------------------------------------------|
B|------------------------------------------------------------------|
G|------------------------------------------------------------------|
D|-----------3---------------3---------------7---------------7------|
A|-----5-4-2---1h2-----5-4-2---1h2-----9-8-6---5h6-----9-8-6---5h6/-|
E|-3-3-------------3-3-------------7-7-------------7-7--------------|

e|-----------------------------------------------------------------|
B|-----------------------------------------------------------------|
G|-----------------------------------------------------------------|
D|---------555555-----------888888-----------888888----------------|
A|----------------------------------------------------4---3---2----|
E|-0-0-0-0----------0-0-0-0----------0-0-0-0--------5---4---3---2/-|

e|-----------------------------------------------------------------|
B|-----------------------------------------------------------------|
G|-----------------------------------------------------------------|
D|---------555555-----------888888-----------888888----------------|
A|----------------------------------------------------4---3---2----|
E|-0-0-0-0----------0-0-0-0----------0-0-0-0--------5---4---3---2--|

e|----------------------------------------------------|
B|----------------------------------------------------|
G|----------------------------------------------------|
D|----------------------------------------------------|
A|---4---3---2------4---3---2-------------------------|
E|-5---4---3---2--5---4---3---2-----------------------|

e|--------------------------------------------------------------|
B|--------------------------------------------------------------|
G|-------------------------55555555--------77777777-------------|
D|-222222224444444477777777555555554444444477777777666666663333-|
A|-222222224444444477777777333333334444444455555555666666663333-|
E|-000000002222222255555555--------22222222--------444444441111-|

e|----------------------------------------------------|
B|-------2h3-/5------------2h3-/5---------------------|
G|-----2--------4-3------2--------4p3---3-------------|
D|-0-2---------------0-2--------------5---5-----------|
A|----------------------------------------------------|
E|----------------------------------------------------|

e|----------------------------------------------------|
B|-------2h3-/5------------3-3-3--5-5-5---------------|
G|-----2--------4p3---3----6b6b6b-8b8b8b--------------|
D|-0-2--------------5---5-----------------------------|
A|----------------------------------------------------|
E|----------------------------------------------------|

e|----------------------------------------------------|
B|-------2h3-/5------------2h3-/5---------------------|
G|-----2--------4-3------2--------4p3---3-------------|
D|-0-2---------------0-2--------------5---5-----------|
A|----------------------------------------------------|
E|----------------------------------------------------|

e|----------------------------------------------------|
B|-------2h3-/5------------2b-2b-2b-2b-2b-------------|
G|-----2--------4p3---3-------------------------------|
D|-0-2--------------5---5-----------------------------|
A|----------------------------------------------------|
E|----------------------------------------------------|

  Guitar 1
e|----------------------------------------------------|
B|----------------------------------------------------|
G|----------------------------------------------------|
D|----------------------------------------------------|
A|-10-10-10-10-10-10-10\-6-6-6-6-6-6-6\-3-3-3-3-3-3-3-|
E|----------------------------------------------------|

  Guitar 2
e|----------------------------------------------------|
B|----------10-----------------6--------------3-------|
G|----------13b----------------9b-------------6b------|
D|----------------------------------------------------|
A|----------------------------------------------------|
E|----------------------------------------------------|

  Guitar 1
e|----------------------------------------------------|
B|----------------------------------------------------|
G|----------------------------------------------------|
D|-4-4-4--8-8-8--11-11-11-----------------------------|
A|-4-4-4--8-8-8--11-11-11-----------------------------|
E|-2-2-2--6-6-6--9--9--9------------------------------|

  Guitar 2
e|----------------------------------------------------|
B|-2-2-2--6-6-6--9--9--9------------------------------|
G|-5b5b5b-9b9b9b-12b12b12b----------------------------|
D|----------------------------------------------------|
A|----------------------------------------------------|
E|----------------------------------------------------|

  Guitar 1
e|----------------------------------------------------|
B|----------------------------------------------------|
G|----------------------------------------------------|
D|----------------------------------------------------|
A|-10-10-10-10-10-10-10\-6-6-6-6-6-6-6\-3-3-3-3-3-3-3-|
E|----------------------------------------------------|

  Guitar 2
e|----------------------------------------------------|
B|----------10-----------------6--------------3-------|
G|----------13b----------------9b-------------6b------|
D|----------------------------------------------------|
A|----------------------------------------------------|
E|----------------------------------------------------|

  Guitar 1
e|----------------------------------------------------|
B|----------------------------------------------------|
G|----------------------------------------------------|
D|-4-4-4--8-8-8--11-11-11-----------------------------|
A|-4-4-4--8-8-8--11-11-11-----------------------------|
E|-2-2-2--6-6-6--9--9--9------------------------------|

  Guitar 2
e|----------------------------------------------------|
B|-2-2-2--6-6-6--9--9--9------------------------------|
G|-5b5b5b-9b9b9b-12b12b12b----------------------------|
D|----------------------------------------------------|
A|----------------------------------------------------|
E|----------------------------------------------------|

e|------------------------------------------------------------------|
B|------------------------------------------------------------------|
G|------------------------------------------------------------------|
D|-----------7---------------7---------------7---------------7------|
A|-----9-8-6---5h6-----9-8-6---5h6-----9-8-6---5h6-----9-8-6---5h6--|
E|-7-7-------------7-7-------------7-7-------------7-7--------------|

e|------------------------------------------------------------------|
B|------------------------------------------------------------------|
G|------------------------------------------------------------------|
D|-----------3---------------3---------------7---------------7------|
A|-----5-4-2---1h2-----5-4-2---1h2-----9-8-6---5h6-----9-8-6---5h6/-|
E|-3-3-------------3-3-------------7-7-------------7-7--------------|

e|------------------------------------------------------|
B|------------------------------------------------------|
G|------------------------------------------------------|
D|---------555555-----------888888-----------888888-----|
A|------------------------------------------------------|
E|-0-0-0-0----------0-0-0-0----------0-0-0-0------------|




Used Tab Symbols
_____________________
 h  = Hammer On
 p  = Pull Off
 ~  = Sustain
 v  = Vibrato
 w  = Wide Vibrato
 b  = Bend
 hb = Bend Halfway
 /  = Slide Up
 \  = Slide Down
 *  = Trill
 x  = Muted Note
 H  = Harmonic
 t  = Right Hand Tap
 :  = Let Ring
_____________________
Tap to rate this tab
 
# A B C D E F G H I J K L M N O P Q R S T U V W X Y Z