Song name
# A B C D E F G H I J K L M N O P Q R S T U V W X Y Z

Fatso Jetson - Magma tab

Magma by Fatso Jetson.
This song is from the album "Toasted".
I've tabbed this the way I play it.
Listen to the song to understand the rhythm and timing of the notes used.
This is played in standard tuning.


e|-----------------------------------------------------|
B|-----------------------------------------------------|
G|-----------------------------------------------------|
D|----------------3b-----------------3-0-5-------------|
A|--------5-4-3-2------------5-4-3-2-------------------|
E|-3-3-1--------------3-3-1----------------------------|

e|-----------------------------------------------------|
B|-----------------------------------------------------|
G|-----------------------------------------------------|
D|----------------3b-----------------3-0-5-------------|
A|--------5-4-3-2------------5-4-3-2-------------------|
E|-3-3-1--------------3-3-1----------------------------|

e|-----------------------------------------------------|
B|-----------------------------------------------------|
G|-----------------------------------------------------|
D|----------------3b-----------------3-0-5-------------|
A|--------5-4-3-2------------5-4-3-2-------------------|
E|-3-3-1--------------3-3-1----------------------------|

e|-----------------------------------------------------|
B|-----------------------------------------------------|
G|---------------------------------------0:------------|
D|----------------3b-----------------3-0-5:------------|
A|--------5-4-3-2------------5-4-3-2-------------------|
E|-3-3-1--------------3-3-1----------------------------|

e|-----------------------------------------------------|
B|-----------------------------------------------------|
G|-----------------------------------------------------|
D|--------------------------6b---4b--------------------|
A|-------7b-----5-4-3/---------------------------------|
E|-7--5------3---------7--5----3-----------------------|

e|-----------------------------------------------------|
B|-----------------------------------------------------|
G|-----------------------------------------------------|
D|--------------------------6b---4b--------------------|
A|-------7b-----5-4-3/---------------------------------|
E|-7--5------3---------7--5----3-----------------------|

e|-----------------------------------------------------|
B|-----------------------------------------------------|
G|-----------------------------------------------------|
D|--------------------------6b---4b--------------------|
A|-------7b-----5-4-3/---------------------------------|
E|-7--5------3---------7--5----3-----------------------|

e|-----------------------------------------------------|
B|-----------------------------------------------------|
G|-----------------------------------------------------|
D|--------------------------6b---4b--------------------|
A|-------7b-----5-4-3/---------------------------------|
E|-7--5------3---------7--5----3-----------------------|

e|-----------------------------------------------------|
B|-----------------------------------------------------|
G|-----3-0--3-0-3-0-3-0-3------------------------------|
D|-----------------------------------------------------|
A|-----------------------------1b-----5---7b-----------|
E|-3-3---------------------3-3-----/6---6--------------|

e|-----------------------------------------------------|
B|-----------------------------------------------------|
G|-----3-0--3------------------------------------------|
D|------------5-4-3------------------------------------|
A|------------------5-4-3------1b-----5---7b-----------|
E|-3-3---------------------3-3-----/6---6--------------|

e|-----------------------------------------------------|
B|-----------------------------------------------------|
G|-----3-0--3-0-3-0-3-0-3------------------------------|
D|-----------------------------------------------------|
A|-----------------------------1b-----5---7b-----------|
E|-3-3---------------------3-3-----/6---6--------------|

e|-----------------------------------------------------|
B|-----------------------------------------------------|
G|-----3-0--3------------------------------------------|
D|------------5-4-3------------------------------------|
A|------------------5-4-3------1b-----5---7b-----------|
E|-3-3---------------------3-3-----/6---6--------------|

e|-----------------------------------------------------|
B|-----------------------------------------------------|
G|-----------------------------------------------------|
D|----------------3b-----------------3-0-5-------------|
A|--------5-4-3-2------------5-4-3-2-------------------|
E|-3-3-1--------------3-3-1----------------------------|

e|-----------------------------------------------------|
B|-----------------------------------------------------|
G|-----------------------------------------------------|
D|----------------3b-----------------3-0-5-------------|
A|--------5-4-3-2------------5-4-3-2-------------------|
E|-3-3-1--------------3-3-1----------------------------|

e|-----------------------------------------------------|
B|-----------------------------------------------------|
G|-----3-0--3-0-3-0-3-0-3------------------------------|
D|-----------------------------------------------------|
A|-----------------------------1b-----5---7b-----------|
E|-3-3---------------------3-3-----/6---6--------------|

e|-----------------------------------------------------|
B|-----------------------------------------------------|
G|-----3-0--3------------------------------------------|
D|------------5-4-3------------------------------------|
A|------------------5-4-3------1b-----5---7b-----------|
E|-3-3---------------------3-3-----/6---6--------------|

e|-----------------------------------------------------|
B|-----------------------------------------------------|
G|-----3-0--3-0-3-0-3-0-3------------------------------|
D|-----------------------------------------------------|
A|-----------------------------1b-----5---7b-----------|
E|-3-3---------------------3-3-----/6---6--------------|

e|-----------------------------------------------------|
B|-----------------------------------------------------|
G|-----3-0--3------------------------------------------|
D|------------5-4-3------------------------------------|
A|------------------5-4-3------1b-----5---7b-----------|
E|-3-3---------------------3-3-----/6---6--------------|

e|-----------------------------------------------------|
B|-----------------------------------------------------|
G|-----------------------------------------------------|
D|----------------3b-----------------3-0-5-------------|
A|--------5-4-3-2------------5-4-3-2-------------------|
E|-3-3-1--------------3-3-1----------------------------|

e|-----------------------------------------------------|
B|-----------------------------------------------------|
G|---------------------------------------0:------------|
D|----------------3b-----------------3-0-5:------------|
A|--------5-4-3-2------------5-4-3-2-------------------|
E|-3-3-1--------------3-3-1----------------------------|

e|-----------------------------------------------------|
B|-----------------------------------------------------|
G|-----------------------------------------------------|
D|--------------------------6b---4b--------------------|
A|-------7b-----5-4-3/---------------------------------|
E|-7--5------3---------7--5----3-----------------------|

e|-----------------------------------------------------|
B|-----------------------------------------------------|
G|-----------------------------------------------------|
D|--------------------------6b---4b--------------------|
A|-------7b-----5-4-3/---------------------------------|
E|-7--5------3---------7--5----3-----------------------|

e|-----------------------------------------------------|
B|-----------------------------------------------------|
G|-----------------------------------------------------|
D|--------------------------6b---4b--------------------|
A|-------7b-----5-4-3/---------------------------------|
E|-7--5------3---------7--5----3-----------------------|

e|-----------------------------------------------------|
B|-----------------------------------------------------|
G|-----------------------------------------------------|
D|--------------------------6b---4b--------------------|
A|-------7b-----5-4-3/---------------------------------|
E|-7--5------3---------7--5----3-----------------------|

e|-----------------------------------------------------|
B|-----------------------------------------------------|
G|-----3-0--3-0-3-0-3-0-3------------------------------|
D|-----------------------------------------------------|
A|-----------------------------1b-----5---7b-----------|
E|-3-3---------------------3-3-----/6---6--------------|

e|-----------------------------------------------------|
B|-----------------------------------------------------|
G|-----3-0--3------------------------------------------|
D|------------5-4-3------------------------------------|
A|------------------5-4-3------1b-----5---7b-----------|
E|-3-3---------------------3-3-----/6---6--------------|

e|-----------------------------------------------------|
B|-----------------------------------------------------|
G|-----3-0--3-0-3-0-3-0-3------------------------------|
D|-----------------------------------------------------|
A|-----------------------------1b-----5---7b-----------|
E|-3-3---------------------3-3-----/6---6--------------|

e|-----------------------------------------------------|
B|-----------------------------------------------------|
G|-----3-0--3------------------------------------------|
D|------------5-4-3------------------------------------|
A|------------------5-4-3------1b-----5---7b-----------|
E|-3-3---------------------3-3-----/6---6--------------|

e|-----------------------------------------------------|
B|-----------------------------------------------------|
G|-----------------------------------------------------|
D|----------------3b-----------------3-0-5-------------|
A|--------5-4-3-2------------5-4-3-2-------------------|
E|-3-3-1--------------3-3-1----------------------------|

e|-----------------------------------------------------|
B|-----------------------------------------------------|
G|-----------------------------------------------------|
D|----------------3b-----------------3-0-5-------------|
A|--------5-4-3-2------------5-4-3-2-------------------|
E|-3-3-1--------------3-3-1----------------------------|

e|-----------------------------------------------------|
B|-----------------------------------------------------|
G|-----3-0--3-0-3-0-3-0-3------------------------------|
D|-----------------------------------------------------|
A|-----------------------------1b-----5---7b-----------|
E|-3-3---------------------3-3-----/6---6--------------|

e|-----------------------------------------------------|
B|-----------------------------------------------------|
G|-----3-0--3------------------------------------------|
D|------------5-4-3------------------------------------|
A|------------------5-4-3------1b-----5---7b-----------|
E|-3-3---------------------3-3-----/6---6--------------|

e|-----------------------------------------------------|
B|-----------------------------------------------------|
G|-----3-0--3-0-3-0-3-0-3------------------------------|
D|-----------------------------------------------------|
A|-----------------------------1b-----5---7b-----------|
E|-3-3---------------------3-3-----/6---6--------------|

e|-----------------------------------------------------|
B|-----------------------------------------------------|
G|-----3-0--3------------------------------------------|
D|------------5-4-3------------------------------------|
A|------------------5-4-3------1b-----5---7b-----------|
E|-3-3---------------------3-3-----/6---6--------------|

e|-----------------------------------------------------|
B|-----------------------------------------------------|
G|-----------------------------------------------------|
D|----------------3b-----------------3-0-5-------------|
A|--------5-4-3-2------------5-4-3-2-------------------|
E|-3-3-1--------------3-3-1----------------------------|

e|-----------------------------------------------------|
B|-----------------------------------------------------|
G|-----------------------------------------------------|
D|----------------3b-----------------3-0-5-------------|
A|--------5-4-3-2------------5-4-3-2-------------------|
E|-3-3-1--------------3-3-1----------------------------|

After the part above, this next part isn't a solo,
it's more like a jam so you can improvise over it and/or use
a mix of the main riff & verse riff.

This part below is the riff that the song finishes with.

e|-----------------------------------------------------|
B|-----------------------------------------------------|
G|-----------------------3-0-3----7-6-5-4--------------|
D|----------------3-0-5--------5----------5------------|
A|--------5-4-3-2---------------------------3-1--------|
E|-3-3-1-----------------------------------------------|

e|-----------------------------------------------------|
B|-----------------------------------------------------|
G|-----------------------3-0-3----7-6-5-4--------------|
D|----------------3-0-5--------5----------5------------|
A|--------5-4-3-2---------------------------3-1--------|
E|-3-3-1-----------------------------------------------|

e|-----------------------------------------------------|
B|-----------------------------------------------------|
G|-----------------------3-0-3----7-6-5-4--------------|
D|----------------3-0-5--------5----------5------------|
A|--------5-4-3-2---------------------------3-1--------|
E|-3-3-1-----------------------------------------------|

e|-----------------------------------------------------|
B|-----------------------------------------------------|
G|--------------------0:-------------------------------|
D|----------------3-0-5:-------------------------------|
A|--------5-4-3-2--------------------------------------|
E|-3-3-1-----------------------------------------------|

Used Tab Symbols
_____________________
 h  = Hammer On
 p  = Pull Off
 ~  = Sustain
 v  = Vibrato
 w  = Wide Vibrato
 b  = Bend
 hb = Bend Halfway
 /  = Slide Up
 \  = Slide Down
 *  = Trill
 x  = Muted Note
 H  = Harmonic
 t  = Right Hand Tap
 :  = Let Ring
_____________________
Tap to rate this tab
# A B C D E F G H I J K L M N O P Q R S T U V W X Y Z