Song name
# A B C D E F G H I J K L M N O P Q R S T U V W X Y Z

Fatso Jetson - Von Deuce tab

Von Deuce by Fatso Jetson.
This song is from the album "Stinky Little Gods".
I've tabbed this the way I play it.
Listen to the song to understand the rhythm and timing of the notes used.
This is played in standard tuning.



e|------------------\--------------------\--------------|
B|------------------\--------------------\--------------|
G|------------------------------------------------------|
D|------------------------------------------------------|
A|-------------5-4v-----------------5-4v----------------|
E|-\-0-3-0-3-0----------\-0-3-0-3-0---------------------|


e|------------------------------------------------------|
B|------------------------------------------------------|
G|------------------------------------------------------| 
D|-----------------------------5---5-7b77775------------| 
A|-4/\-----------5-4v--4\-/7-7---7----------7-----------| 
E|-----0-3-0-3-0----------------------------------------|  

e|------------------------------------------------------|
B|------------------------------------------------------|
G|------------------------------------------------------|
D|-------------------------5----------------------------|
A|-----------5-4v--4\-/7-7---7-7-5-55-4h5-4-------------|
E|-0-3-0-3-0--------------------------------------------|

e|------------------------------------------------------|
B|------------------------------------------------------|
G|-------------------------------7b77777----------------| 
D|-------------------------5---5-7b777775---------------| 
A|-----------5-4v--4\-/7-7---7--------------------------| 
E|-0-3-0-3-0--------------------------------------------| 

e|------------------------------------------------------|
B|------------------------------------------------------|
G|------------------------------------------------------|
D|-------------------------5----------------------------|
A|-----------5-4v--4\-/7-7---7-7-5-55-4h5-4-------------|
E|-0-3-0-3-0--------------------------------------------|

e|-----------------------------------------------------------------|
B|-/12-12v-12-11-11-11v-11----11----11-10-10-10-10-10-10-10-10-10--|
G|-------------------------12----12-------11-11-11-11-11-11-11-11--|
D|-----------------------------------------------------------------|
A|-----------------------------------------------------------------|
E|-----------------------------------------------------------------|

e|-----------------------------------------------------------------|
B|-12-12v-12-11-11-11v-11----11----11-10-10-10-10-10-10-10-10-10\--|
G|------------------------12----12-------11-11-11-11-11-11-11-11\--|
D|-----------------------------------------------------------------|
A|-----------------------------------------------------------------|
E|-----------------------------------------------------------------|

e|------------------------------------------------------|
B|------------------------------------------------------|
G|------------------------------------------------------|
D|------------------------------------------------------|
A|-------------44---------------44----------------------|
E|-003300330033--33-003300330033--33--------------------|

e|----------------------------------------------------------|
B|----------------------------------------------------------|
G|----------------------------------------------------------|
D|---------5---5--4---4--3---3----------5---5--4---4--3---3-|
A|-5-5-6-7---6------5------4----5-5-6-7---6------5------4---|
E|----------------------------------------------------------|

e|----------------------------------------------------------|
B|----------------------------------------------------------|
G|----------------------------------------------------------|
D|----------------------------------------------------------|
A|---------5---5--4---4--3---3----------5---5--4---4--3---3-|
E|-5-5-6-7---6------5------4----5-5-6-7---6------5------4---|

e|----0--33333333p00--33333333p00--33333333p00--333333--|
B|----0--22222222p00--22222222p00--22222222p00--222222--|
G|------------------------------------------------------|
D|-22---------------------------------------------------|
A|-22---------------------------------------------------|
E|-00---------------------------------------------------|

e|-------------------55-5-------------------55-5--------|                  5
B|-5--5-5--5-5-5--5--44-4-5--5-5--5-5-5--5--44-4--------| I have added the 4 to it,
G|-8b-8b8b-8b8b8b-8b------8b-8b8b-8b8b8b-8b-------------| you can use this or replace 
D|------------------------------------------------------| it with the 5 unison bends.
A|------------------------------------------------------|             8
E|------------------------------------------------------|

e|------------------------------------------------------|
B|-10--10-10--10-10-10--11-11-11-11-11-11---------------|
G|-13b-13b13b-13b13b13b-14b14b14b14b14b14b--------------|
D|------------------------------------------------------|
A|------------------------------------------------------|
E|------------------------------------------------------|

e|------------------------------------------------------|
B|-10--10-10--10-10-10--11-11-11-11--\10----------------|
G|-13b-13b13b-13b13b13b-14b14b14b14b-\12----------------|
D|------------------------------------------------------|
A|------------------------------------------------------|
E|------------------------------------------------------|

e|-12-12-1212-12-121212-1212/15-15-15-1515-15/18181818-18\--|
B|-11-11-1111-11-111111-1112/14-14-14-1414-14/17171717-17\--|
G|----------------------------------------------------------|
D|----------------------------------------------------------|
A|----------------------------------------------------------|
E|----------------------------------------------------------|

e|------------------------------------------------------|
B|-5--5-5--5-5--5-5--5-5-5-5--5-5-5-5--5-5-5-/\---------|
G|-8b-8b8b-8b8b-8b8b-8b8b8b8b-8b8b8b8b-8b8b8b/\---------|
D|------------------------------------------------------|
A|------------------------------------------------------|
E|------------------------------------------------------|

e|------------------------------------------------------|
B|------------------------------------------------------|
G|------------------------------------------------------| 
D|-------------------------5---5-7b77775----------------| 
A|-----------5-4v--4\-/7-7---7----------7---------------| 
E|-0-3-0-3-0--------------------------------------------|  

e|------------------------------------------------------|
B|------------------------------------------------------|
G|------------------------------------------------------|
D|-------------------------5----------------------------|
A|-----------5-4v--4\-/7-7---7-7-5-55-4h5-4-------------|
E|-0-3-0-3-0--------------------------------------------|

e|------------------------------------------------------|
B|------------------------------------------------------|
G|----------------------------7b77777-------------------| 
D|----------------------5---5-7b777775------------------| 
A|-----------5-4v--/7-7---7-----------------------------| 
E|-0-3-0-3-0--------------------------------------------| 

e|------------------------------------------------------|
B|------------------------------------------------------|
G|------------------------------------------------------|
D|----------------------5-------------------------------|
A|-----------5-4v--/7-7---7-7-5-55-4h5-4----------------|
E|-0-3-0-3-0--------------------------------------------|

e|-----------------------------------------------------------------|
B|-/12-12v-12-11-11-11v-11----11----11-10-10-10-10-10-10-10-10-10--|
G|-------------------------12----12-------11-11-11-11-11-11-11-11--|
D|-----------------------------------------------------------------|
A|-----------------------------------------------------------------|
E|-----------------------------------------------------------------|

e|-----------------------------------------------------------------|
B|-12-12v-12-11-11-11v-11----11----11-10-10-10-10-10-10-10-10-10\--|
G|------------------------12----12-------11-11-11-11-11-11-11-11\--|
D|-----------------------------------------------------------------|
A|-----------------------------------------------------------------|
E|-----------------------------------------------------------------|

e|------------------------------------------------------|
B|------------------------------------------------------|
G|------------------------------------------------------|
D|------------------------------------------------------|
A|-------------44---------------44----------------------|
E|-003300330033--33-003300330033--33--------------------|

e|----------------------------------------------------------|
B|----------------------------------------------------------|
G|----------------------------------------------------------|
D|---------5---5--4---4--3---3----------5---5--4---4--3---3-|
A|-5-5-6-7---6------5------4----5-5-6-7---6------5------4---|
E|----------------------------------------------------------|

e|-----------------------------------------------------------0-|
B|-----------------------------------------------------------0-|
G|-----------------------------------------------------------1-|
D|-----------------------------------------------------------2-|
A|---------5---5--4---4--3---3----------5---5--4---4--3---3--2-|
E|-5-5-6-7---6------5------4----5-5-6-7---6------5------4----0-|

e|---------------------------0-------------------------------|
B|---------------------------0-------------------------------| This part only shows
G|---------------------------1-------------------------------| what notes are used 
D|---------------------------2-------------------------------| to end the song, listen
A|---------------------------2-------------------------------| to how they are used or
E|-0--/12--10-12-10--\7--\3--0-------------------------------| do your own thing.


Used Tab Symbols
_____________________
 h  = Hammer On
 p  = Pull Off
 ~  = Sustain
 v  = Vibrato
 w  = Wide Vibrato
 b  = Bend
 hb = Bend Halfway
 /  = Slide Up
 \  = Slide Down
 *  = Trill
 x  = Muted Note
 H  = Harmonic
 t  = Right Hand Tap
 :  = Let Ring
_____________________
Tap to rate this tab
 
# A B C D E F G H I J K L M N O P Q R S T U V W X Y Z