Song name
# A B C D E F G H I J K L M N O P Q R S T U V W X Y Z

Fattern - Poteter P Badet tab

-------------------------------------------------------------------------------
			    Fattern - Poteter På Badet
-------------------------------------------------------------------------------
Tabbed by: Harald Hveem
Email: ace_ventuora@hotmail.com

Tuning: EADGBe


Very simple song, just repeat this all the way:
e|--------------------------------------|
B|--------------------------------------|
G|--------------------------------------|
D|---5-5-5-5-5---7-7--------------------|
A|---2-2-2-2-2---5-5---7-7-7---2-2-2----|
E|---------------------5-5-5---0-0-0----|

After 1:10 play
e|---------------------|
B|---------------------|
G|---------------------|
D|---5~--7~------------|
A|---2~--5~--7~--2~----|
E|-----------5~--0~----|


Like morsom å spille hvær gang :)
\m/ Peace \m/
Tap to rate this tab
# A B C D E F G H I J K L M N O P Q R S T U V W X Y Z