Song name
# A B C D E F G H I J K L M N O P Q R S T U V W X Y Z

Fattern - Det Regner Ku tab

-------------------------------------------------------------------------------
			    Fattern - Det Regner Ku
-------------------------------------------------------------------------------
Tabbed by: Harald Hveem
Email: ace_ventuora@hotmail.com

Tuning: EADGBe

Vers:
e|-----------------------------------|
B|-----------------------------------|
G|---7-7-7-------------------5-5-5---|
D|---7-7-7---8-8-8---5-5-5---5-5-5---|  
A|---5-5-5---8-8-8---5-5-5---3-3-3---|
E|-----------6-6-6---3-3-3-----------|
   (Det regner ku...)

Mellomparti: (Slå 8 ganger på hvær streng)
e|--------------------|
B|--------------------|
G|---7-------7---5----|
D|---7---5---7---5----|
A|---5---5---5---3----|
E|-------3------------|
   (Kuer kommer dalende ned...)

Spill verset igjen

Før 2. Mellomparti:
e|---------------|
B|---------------|
G|---5-5-5-5-5---|
D|---5-5-5-5-5---| 
A|---3-3-3-3-3---|
E|---------------|

2. Mellomparti:  (Slå flere ganger på hvær streng ettersom du synger)
e|------------------------------------|
B|------------------------------------|
G|---7---5-------7---5---------6-6/---|
D|---7---5---5---7---5---5-----6-6/---|
A|---5---3---5---5---3---5-----4-4/---|
E|-----------3-----------3------------|
  (Jeg kommer til å dø, hva i Hælvete...)

Gjenta Verset, og spill saktere etterhvært. Avslutt med en
e|-------|
B|-------|
G|---7---|
D|---7---|
A|---5---|
E|-------|


Morsom både å spille å høre på, og enkel :)
Lykke til! \m/ Peace \m/
Tap to rate this tab
# A B C D E F G H I J K L M N O P Q R S T U V W X Y Z