Song name
# A B C D E F G H I J K L M N O P Q R S T U V W X Y Z

Fattern - Poteter P Bade tab

this is a easy tab.


|--------------------5-5-5--0-0-0-------------------|
|----2-2-2-2-2---5-5--------------------------------|
|---------------------------------------------------|
|---------------------------------------------------|
|---------------------------------------------------|
|---------------------------------------------------|

play it 10 times then play this ||
                                ||
                                 /
                                /


|---------------------------5---------------2--------|
|----2------------5----------------------------------|
|----------------------------------------------------|
|----------------------------------------------------|
|----------------------------------------------------|
|----------------------------------------------------|
Tap to rate this tab
# A B C D E F G H I J K L M N O P Q R S T U V W X Y Z