Song name
# A B C D E F G H I J K L M N O P Q R S T U V W X Y Z

Faulter - October 16th tab

NOTE: This is a very crude, minimalistic, almost primal notation because it lacks any 
indication of the intonation (note values). However it seems to be the most popular 
on the internet so I will do my best to give you an accurate feel for the song.

OCTOBER 16th by Faulter from the album Darling Buds of May
faultermusic.com

Tuning: Half step down

-e flat------------------------------------------------------------------------|
-B flat---------------0----------0-------------0------------0------------------|
-G flat------------3----------------3-------------3------------3---------------|
-D flat---------4------------4-------------4------------4----------------------|
-A flat------------------------------------------------------------------------|
-E flat------0------------4-------------2-------------2------------------------|

Intro: 2x
Verse: 8x; however after first 4x there is a 2nd guitar fill

---11-----------------------------------------------------|
-------9---9---11-12-11-----------11-12-11-9--------------|
-----------------------------11---11----------------------|
----------------------------------------------------------|
----------------------------------------------------------|
----------------------------------------------------------|

there's some slight variation on a couple of them...

Prechorus:

"cause i waited much too long..."
------------------------------------------------|
------------------------------------------------|
------------------------------------------------|
-2--------------------2-------------------------|
-2--------------------2-------------------------|
-0--------------------0-------------------------|

Chorus: (which is [B][I]extremely[/I][/B] Jimmy Eat World-esque, I mean the whole song 
but the chorus is especially)

"but you're not giving in..."
------------------------------------------------------------------------|
------------------------------------------------------------------------|
-4-4-4-4-4-4-4-4--------------------------------------------------------|
-4-4-4-4-4-4-4-4-4-4-4-4-4-4-4-4-2-2-2-2-2-2-2-2-2-2-2-2-2-2-2-2--------|
-2-2-2-2-2-2-2-2-4-4-4-4-4-4-4-4-2-2-2-2-2-2-2-2-2-2-2-2-2-2-2-2--------|
-----------------------2-2-2-2-2-2-2-2-0-0-0-0-0-0-0-0-0-0-0-0-0-0-0-0--|

------------------------------------------------------------------|
------------------------------------------------------------------|
------------------------------------------------------------------|
-6-6-6-6-6-6-6-6-4-4-4-4-4-4-4-4-2-2-2-2-2-2-2-2-2-2-2-2-2-2-2-2--|
-6-6-6-6-6-6-6-6-4-4-4-4-4-4-4-4-2-2-2-2-2-2-2-2-2-2-2-2-2-2-2-2--|
-4-4-4-4-4-4-4-4-2-2-2-2-2-2-2-2-0-0-0-0-0-0-0-0-0-0-0-0-0-0-0-0--|

Lather, rinse, repeat... and that's pretty much the song. there's also a solo, but I 
bother to tab that.
Tap to rate this tab
# A B C D E F G H I J K L M N O P Q R S T U V W X Y Z