Song name
# A B C D E F G H I J K L M N O P Q R S T U V W X Y Z

Faye Wong - Eyes On Me tab

e-----------0--3--0-----------0------------------|
B-----1--3-----------------3-----1--------1--3---|
G--0-----------------------------------2---------|
D------------------------------------------------|
A------------------------------------------------|
E------------------------------------------------|
Whenever sang my song, on the stage, on my own...

e----------0--3--7----------7--8--5-----3--5--3--|
B-----1--3---------------------------------------|
G--0---------------------------------------------|
D------------------------------------------------|
A------------------------------------------------|
E------------------------------------------------|
Whenever said my words, wishing they, would be heard...

e--3--8----8--7--5--5---3---0--3--5--5-3---1--1---1-----0-|
B----------------------------------------------------3----|
G---------------------------------------------------------|
D---------------------------------------------------------|
A---------------------------------------------------------|
E---------------------------------------------------------|
I saw you smiling at me, was it real or just my fantasy...

e--0--0------0--1--0----------------------------0--3-----|
B---------3------------3--3--1-------1--1-----3------3---|
G---------------------------------2----------------------|
D--------------------------------------------------------|
A--------------------------------------------------------|
E--------------------------------------------------------|
You'd always be there in the corner, of this tiny little bar...

e-----------0--3--0-----------0------------------|
B-----1--3-----------------3-----1--------1--3---|
G--0-----------------------------------2---------|
D------------------------------------------------|
A------------------------------------------------|
E------------------------------------------------|
My last night here for you, same old songs, just once more...

e----------0--3--7----------7--8--5-----3--5--3--|
B-----1--3---------------------------------------|
G--0---------------------------------------------|
D------------------------------------------------|
A------------------------------------------------|
E------------------------------------------------|
My last night here with you, maybe yes, maybe no...

e--3--8----8--7--5--5---3---0--3--5--5-3---1--1---1-----0-|
B----------------------------------------------------3----|
G---------------------------------------------------------|
D---------------------------------------------------------|
A---------------------------------------------------------|
E---------------------------------------------------------|
I kind if liked it your way, how you shyly placed your eyes on me...	

e-------------0--1--3------3--1-----0------------|
B-----1--3-----------------------1---------3--1--|
G--0---------------------------------------------|
D------------------------------------------------|
A------------------------------------------------|
E------------------------------------------------|
oh did you ever know, that I had mine on you...

e-----0--3--7---5--5-----5--7--8--5--3--3--------|
B--1---------------------------------------------|
G------------------------------------------------|
D------------------------------------------------|
A------------------------------------------------|
E------------------------------------------------|
Darling so there you are, with that look on your face...

e--0--1--3--3---1--1------1--3--5--5---3--3------|
B------------------------------------------------|
G------------------------------------------------|
D------------------------------------------------|
A------------------------------------------------|
E------------------------------------------------|
as if you're never hurt, as if you're never down...

e--------0--3--7----5--5-----1--5--7--8--7--3----7--5--|
B--1--1------------------------------------------------|
G------------------------------------------------------|
D------------------------------------------------------|
A------------------------------------------------------|
E------------------------------------------------------|
Shall i be the one for you, who pinches you softly, but sure...

e--3--3--1--8--1-----------0---0----------------------------|
B--------------------1--3---------3--1--0--3-------------1--|
G-----------------------------------------------------------|
D-----------------------------------------------------------|
A-----------------------------------------------------------|
E-----------------------------------------------------------|
If frown is shown then, I will know that you are no dreamer...

e-----------0--3--0-----------0------------------|
B-----1--3-----------------3-----1--------1--3---|
G--0-----------------------------------2---------|
D------------------------------------------------|
A------------------------------------------------|
E------------------------------------------------|
So let me come to you, close as I wanna be...

e----------0--3--7----------7--8--5-----3--5--3--|
B-----1--3---------------------------------------|
G--0---------------------------------------------|
D------------------------------------------------|
A------------------------------------------------|
E------------------------------------------------|
close enough for me, to feel your heart beating fast...

e--3--8----8--7--5--5---3---0--3--5--5-3---1--1---1-----0-|
B----------------------------------------------------3----|
G---------------------------------------------------------|
D---------------------------------------------------------|
A---------------------------------------------------------|
E---------------------------------------------------------|
And stay there as I whisper, how I loved your peaceful eyes on me...

e-------------0--1--3------3--1-----0------------|
B-----1--3-----------------------1---------3--1--|
G--0---------------------------------------------|
D------------------------------------------------|
A------------------------------------------------|
E------------------------------------------------|
Oh did you ever know, that I had mine on you..

e-----0--3--7---5--5-----5--7--8--5--3--3--------|
B--1---------------------------------------------|
G------------------------------------------------|
D------------------------------------------------|
A------------------------------------------------|
E------------------------------------------------|
Darling so share with me, your love if you have enough..

e--0--1--3--3---1--1----1--1--3--5--5---3--3-----|
B------------------------------------------------|
G------------------------------------------------|
D------------------------------------------------|
A------------------------------------------------|
E------------------------------------------------|
Your tears if you're holding back, or pain if that's what it is..

e--------0--3--7----5--5-----1--5--7--8--7--3----7--5--|
B--1--1------------------------------------------------|
G------------------------------------------------------|
D------------------------------------------------------|
A------------------------------------------------------|
E------------------------------------------------------|
How can I let you know, I'm more than a dress and a voice...

e--3--3--1--8--1-----------0---0----------------------------|
B--------------------1--3---------3--1--0--3-------------1--|
G-----------------------------------------------------------|
D-----------------------------------------------------------|
A-----------------------------------------------------------|
E-----------------------------------------------------------|
Just reach me out then, you will know that you're not dreaming...
Tap to rate this tab
# A B C D E F G H I J K L M N O P Q R S T U V W X Y Z