Song name
# A B C D E F G H I J K L M N O P Q R S T U V W X Y Z

Fc Five - My Strife tab

I was bored and tired of not seeing any FC Five tabs, and the other "My Strife" is kind 
of weird sounding...so i tabbed it out myself and here you go. Rate it and all that 
junk. Have fun

e-------------------------------------------------------------------|
b--------------------------7-5-5-7-5-5-7----------------------------|
g-------------------------------------------------------------------|
d--0~----0~----0~----0~---------------------------------------------|
a--0~----0~----0~----0~---------------------------------------------|
D--0~----0~----0~----0~---------------------------------------------|
                             . .   . . < ever so slightly muted

Guitar 1 (listen to get rythem)
e-------------------------------------------------------------------|
b-------------------------------------------------------------------|
g-------------------------------------------------------------------|
d--0----5-----------------------------------------------------------|
a--0----5-----------------------------------------------------------|
D--0----5-----------------------------------------------------------|


e-------------------------------------------------------------------|
b---3-5-7-5-5-3-5-11-7-5-3-5-7-5-5-3-5-11-7-5-----------------------|
g-------------------------------------------------------------------|
d-------------------------------------------------------------------|
a-------------------------------------------------------------------|
D-------------------------------------------------------------------|

e-------------------------------------------------------------------|
b--12(x8)-10(x8)-12(x8)-7(x4)-10(x4)--------------------------------|
g-------------------------------------------------------------------|
d-------------------------------------------------------------------|
a-------------------------------------------------------------------|
D-------------------------------------------------------------------|

e-------------------------------------------------------------------|
b---3-5-7-5-5-3-5-11-7-5-3-5-7-5-5-3-5-11-7-5-----------------------|
g-------------------------------------------------------------------|
d-------------------------------------------------------------------|
a-------------------------------------------------------------------|
D-------------------------------------------------------------------|

e-------------------------------------------------------------------|
b--12(x8)-10(x8)-12(x8)-7(x4)-10(x4)--------------------------------|
g-------------------------------------------------------------------|
d-------------------------------------------------------------------|
a-------------------------------------------------------------------|
D-------------------------------------------------------------------|

e-------------------------------------------------------------------|
b--------------------------7-5-5-7-5-5-7----------------------------|
g-------------------------------------------------------------------|
d--0~----0~----0~----0~---------------------------------------------|
a--0~----0~----0~----0~---------------------------------------------|
D--0~----0~----0~----0~---------------------------------------------|
                             . .   . .

Guitar 1
e-------------------------------------------------------------------|
b-------------------------------------------------------------------|
g-------------------------------------------------------------------|
d--0----5-----------------------------------------------------------|
a--0----5-----------------------------------------------------------|
D--0----5-----------------------------------------------------------|


e-------------------------------------------------------------------|
b---3-5-7-5-5-3-5-11-7-5-3-5-7-5-5-3-5-11-7-5-----------------------|
g-------------------------------------------------------------------|
d-------------------------------------------------------------------|
a-------------------------------------------------------------------|
D-------------------------------------------------------------------|

e-------------------------------------------------------------------|
b--12(x8)-10(x8)-12(x8)-7(x4)-10(x4)--------------------------------|
g-------------------------------------------------------------------|
d-------------------------------------------------------------------|
a-------------------------------------------------------------------|
D-------------------------------------------------------------------|

e-------------------------------------------------------------------|
b---3-5-7-5-5-3-5-11-7-5-3-5-7-5-5-3-5-11-7-5-----------------------|
g-------------------------------------------------------------------|
d-------------------------------------------------------------------|
a-------------------------------------------------------------------|
D-------------------------------------------------------------------|

e-------------------------------------------------------------------|
b--12(x8)-10(x8)-12(x8)-7(x4)-10------------------------------------|
g-------------------------------------------------------------------|
d-------------------------------------------------------------------|
a-------------------------------------------------------------------|
D-------------------------------------------------------------------|

Breakdown
e-------------------------------------------------------------------|
b----------------------10-7-------------------------10-7------------|
g---------------------------9----------------------------9-7--------|
d-0-0000-0-00-0-00-0------------0-0000-0-00-0-00-0------------------|
a-0-0000-0-00-0-00-0------------0-0000-0-00-0-00-0------------------|
D-0-0000-0-00-0-00-0------------0-0000-0-00-0-00-0------------------|
    ....   ..   ..                ....   ..   ..

e-------------------------------------------------------------------|
b----------------------10-7-----------------------------------------|
g---------------------------9---------------------------------------|
d-0-0000-0-00-0-00-0------------0-0000-00-00--0-0-------------------|
a-0-0000-0-00-0-00-0------------0-0000-00-00--0-0-------------------|
D-0-0000-0-00-0-00-0------------0-0000-00-00--0-0-------------------|
    ....   ..   ..                .... .. ..  . .
e-------------------------------------------------------------------|
b----------------------------10-7--------------------------10-7-----|
g--------------------------------9------------------------------9-7-|
d---0-0-0-0-0-0-0-0-0-0-0-0--------0-0-0-0-0-0-0-0-0-0-0-0----------|
a---0-0-0-0-0-0-0-0-0-0-0-0--------0-0-0-0-0-0-0-0-0-0-0-0----------|
D---0-0-0-0-0-0-0-0-0-0-0-0--------0-0-0-0-0-0-0-0-0-0-0-0----------|
    . . . . . . . . . . . .        . . . . . . . . . . . .
e-------------------------------------------------------------------|
b----------------------------10-7--------------------------10-7-----|
g--------------------------------9------------------------------9-7-|
d---0-0-0-0-0-0-0-0-0-0-0-0--------0-0-0-0-0-0-0-0-0-0-0-0----------|
a---0-0-0-0-0-0-0-0-0-0-0-0--------0-0-0-0-0-0-0-0-0-0-0-0----------|
D---0-0-0-0-0-0-0-0-0-0-0-0--------0-0-0-0-0-0-0-0-0-0-0-0----------|
    . . . . . . . . . . . .        . . . . . . . . . . . .
e-------------------------------------------------------------------|
b-------------------------------------------------------------------|
g-------------------------------------------------------------------|
d--0~----0~----0~----0~----0----------------------------------------|
a--0~----0~----0~----0~----0----------------------------------------|
D--0~----0~----0~----0~----0----------------------------------------|

comments are welcomed and messages on FB are welcome too. plan to have more FC Five tabs 
soon http://www.facebook.com/profile.php?id=783165320
Tap to rate this tab
 
# A B C D E F G H I J K L M N O P Q R S T U V W X Y Z