Song name
# A B C D E F G H I J K L M N O P Q R S T U V W X Y Z

Fear Before The March Of Flames - Motelroom Grandpiano tab

Tabbed by: coheedandnofx6
aim: xautumnxromance

Tuning: Drop DADGBe
   
                               ::INTRO::
e|---------------------------------------------------------------------------|
B|---------------5-5-5-5-5-5^--------------5-5-5-5-5-5^------------*-*-*-*---|
G|-----------------------------------------------------------------------|
D|--4-4-4--4-4-4-------------4-4-4--4-4-4-------------4-4-4--4-4-4--7-4-7-4--|
A|--2-2-2--2-2-2-------------2-2-2--2-2-2-------------2-2-2--2-2-2-----------|
D|---------------------------------------------------------------------------|

e|----------------------------|
B|----------------------------|
G|----------------------------|
D|---4-4-4--4-4-4--0-2--------|
A|---2-2-2--2-2-2--0-2--------|
D|-----------------0-2--------|
PM                 .
  
  Lead Guitar               ::CHORUS::
e|----------------------------------------------------------------|
B|----------------------------------------------------------------|
G|-----------2-2-2---------2-2-2---------2-2-2-------------2------|
D|---5-5-5-5-------5-5-5-5-------5-5-5-5-------5-5-5-5-5-5--------|
A|----------------------------------------------------------------|
D|----------------------------------------------------------------|
  Rythym Guitar 
e|------------------------------------|
B|------------------------------------|
G|------------------------------------|
D|---3h5---3h5---3h5---3h5---3h5------|
A|---3h5---3h5---3h5---3h5---3h5------|
D|---3h5---3h5---3h5---3h5---3h5------|

              ::POSTCHORUS::
  Lead Guitar
e|------------------------------------------|
B|-------6-7-----6---------6-7-----6--------|
G|---5-6-----5-6---6---5-6-----5-6---6------|
D|------------------------------------------|
A|------------------------------------------|
D|------------------------------------------|
  Rythym Guitar
e|------------------------------------------------|
B|------------------------------------------------|
G|------------------------------------------------|
D|---6-(16x)---4-(16x)----------------------------|
A|----------------------0-0-0-0-0-0-0-0-0-0-0-0---|
D|----------------------0-0-0-0-0-0-0-0-0-0-0-0---|
PM                      . . . . . . . . . . . . 

              ::OUTRO::
e|-------------------------------------|
B|-------------------------------------|
G|-------------------------------------|
D|---2-3-5-3-2-3----2-3-5-3-2-3-3/5----|
A|---------------5---------------------|
D|-------------------------------------|
  Rythym Guitar
e|-------------------------------------|
B|-------------------------------------|
G|-------------------------------------|
D|-------------------------------------|
A|---2-3-5-3-2-3-1--2-3-5-3-2-3-3/5----|
D|---2-3-5-3-2-3-1--2-3-5-3-2-3-3/5----|
  Lead Guitar
e|-------------------------------------|
B|-------------------------------------|
G|---5-5-6-5-5-6---5-5-6-5-5-6-8-------|
D|---------------8---------------------|
A|-------------------------------------|
D|-------------------------------------|

e|-------------------|
B|-------------------|
G|---5-5-5-5-5/7^----|
D|---4-4-4-4-4/6^----|
A|-------------------|
D|-------------------|

PLEASE RATE 
HAVE FUN
Tap to rate this tab
 
# A B C D E F G H I J K L M N O P Q R S T U V W X Y Z