Song name
# A B C D E F G H I J K L M N O P Q R S T U V W X Y Z

Fear Before The March Of Flames - Whiskey Is Alright In Its Place But Its Place Is In Hell tab

The tab for the best intro of any son ever

e|-------------------------------------------------------------|
B|-------------------------------------------------------------|
G|-------------------------------------------------------------|
D|-----3--------3---------------3-------3----------------------|
A|----------------------4------------------------4-------------|
D|---2---2-2-2----2-4/6---6---2---2-2-2----2-4/6---6-----------|


e|-------------------------------------------------------------|
B|-------------------------------------------------------------|
G|-------------------------------------------------------------|
D|-----3--------3---------------3------------------------------|
A|----------------------4--------------------------------------|
D|---2---2-2-2----2-4/6---6---2---2-2-2-2-2--------------------|

Do it one more time and theres the intro

Tap to rate this tab
 
# A B C D E F G H I J K L M N O P Q R S T U V W X Y Z