Song name
# A B C D E F G H I J K L M N O P Q R S T U V W X Y Z

Fear Before The March Of Flames - State Of Texas Vs Fear Before tab

Tabbed by:coheedandnofx6
AIM: xautumnxromance

Tuning:Drop DADGBe

This is fear befores best song in my opinion.Sorry im lazy and im not gonna put the
amount of times to play everything because it changes way too much.

               .:INTRO:.
e|-------------------------------------|
B|-------------------------------------|
G|---8p0-----10p0-----8p0-10p0---------|
D|-------6p0------8p0----------6-6-6---|
A|-------------------------------------|
D|-------------------------------------|
PM                             . . .
e|-----------------|
B|---6-6-6-6-6-6---|
G|---4-4-4-4-4-4---|
D|-----------------|
A|-----------------|
D|-----------------|
              .:VERSE:.
e|------------------------------------------|
B|------------------------------------------|
G|---6p0-3p0-----8p0-10p0-------------------|
D|-----------6p0----------6p0-4p0-----------|
A|------------------------------------------|
D|------------------------------------------|

e|--------------------------------------------------------|
B|---4-[x13]---------6-[x12]---------4h7p4---9p6----------|
G|---5--------8-[x4]-4---------------------7--------------|
D|-----------10-------------------------------------------|
A|---------------------------6-6-6-5--------------0-0-0---|
D|---------------------------6-6-6-5--------------0-0-0---|
PM.                                               . . .
 
Repeat intro a couple of times.
 
                    .:NEXT PART:.
e|---------------------------------------------------------|
B|----------------------------------------8^---------------|
G|---------------------------------------10^---------------|
D|---------------------------------------------------------|
A|---5-5-8p0-8p0-5-5-8p0-8p0-5-5-8p0-8p0-------------------|
D|---5-5-8p0-8p0-5-5-8p0-8p0-5-5-8p0-8p0-------------------|

                    .:THEN:.
e|--------------------------------------------------------|
B|--------------------------------------------------------|
G|--------------------------------------------------------|
D|--------------------------------------------------------|
A|---5-----6p5---5---------5-----6p5---5------------------|
D|-----8-5-----8---8-5~------8-5-----8---8-5--------------|

e|----------------|-----------|
B|----------------|-----------|
G|----------------|-----------|
D|-------------[x3|-----------|
A|---5-----6p5----|--6--------|
D|-----8-5-----8--|----8-5-0~-|

                .:NEXT PART:.
e|---6-6--6-6-6-6-6-6-6-6--6-6--6-6-6-6-6-6-6-6--------|
B|---5-5--5-5-5-5-5-5-5-5--5-5--5-5-5-5-5-5-5-5--------|
G|---6-6--6-6-6-6-6-6-6-6--6-6--6-6-6-6-6-6-6-6--------|
D|---5-5--5-5-5-5-5-5-5-5--5-5--5-5-5-5-5-5-5-5--------|
A|-----------------------------------------------------|
D|-----------------------------------------------------|

e|-----------------------------------|
B|-----------------------------------|
G|---3p0-----5p0-----3p0-5p0--0-0-0--|
D|-------5p0-----5p0-----------------|
A|-----------------------------------|
D|-----------------------------------|
PM                            . . .

e|----------------------------------------|
B|----------------------------------------|
G|----------------------------------------|
D|---8p5-5-8p5-5-8p5-5-8p5---------5p0----|
A|-------------------------5p0-8p0--------|
D|----------------------------------------|

BEST SONG EVER :D
Tap to rate this tab
 
# A B C D E F G H I J K L M N O P Q R S T U V W X Y Z