Song name
# A B C D E F G H I J K L M N O P Q R S T U V W X Y Z

Fear Before The March Of Flames - The God Awful Truth tab

this song is in drop D (D A D G B e)

--------------|
--------------|
--------------|
---3----------|             play that 8 times
---0----------|
---0----------|

then go to into this:

------------------------------------------------------------------------|
------------------------------------------------------------------------|
-----10--10--10--10--0--10------10--10---10--0--10---12-12-12-12--------|
------8---8---8---8--0---8-------8---8----8--0---8---10-10-10-10--------|
------------------------------------------------------------------------|
------------------------------------------------------------------------|

Also Play that 8 Times then go back into this:

--------------|
--------------|
--------------|
---3----------|             play that 8 times
---0----------|
---0----------|


i dont know the rest but if i do ill let you know.
Tap to rate this tab
# A B C D E F G H I J K L M N O P Q R S T U V W X Y Z