Song name
# A B C D E F G H I J K L M N O P Q R S T U V W X Y Z

Fear Before The March Of Flames - Given To Dreams Acoustic tab

This is the acoustic part between "Go Wash Your Mouth" and "Given to Dreams"
the lyrics are under given to dreams so thats why its called that.

i havent seen any tabs for this yet, so please tell me if there's a mistake

ooo@tokyo.com

drop d tuning both guitars

Guitar 1
E|--------------------------------------------------|
B|-7-------7-------7-------7-------7--------7-------|
G|-4-------4-------4-------4-------4--------4-------|
D|---5-5-----5-5-----5-------5-5-----5-5------5-----|
A|--------------------------------------------------|
D|--------------------------------------------------|

E|--------------------------------------------------|
B|---7-7-----7-7-----7-------7-7-----7-7------7-----|
G|---4-4-----4-4-----4-------4-4-----4-4------4-----|
D|-0-0-0---0-0-0---0-0-----4-4-4---4-4-4----4-4-----|
A|-0-0-0---0-0-0---0-0-----4-4-4---4-4-4----4-4-----|
D|-0-0-0---0-0-0---0-0-----4-4-4---4-4-4----4-4-----|


guitar 1 keeps playing this throughout the song unless another part is written

Guitar 2 (2nd time through)
E|--------------------------------------------------|
B|--------------------------------------------------|
G|--------------------------------------------------|
D|-4------(carries)---------------------------------|
A|--------------------------------------------------|
D|--------------------------------------------------|

Guitar 2
E|--------------------------------------------------|
B|--------------------------------------------------|
G|--------------------------------------------------|
D|-4----------------------4-------------------------|
A|-0----------------------4-------------------------|
D|-0----------------------4-------------------------|


lyrics come in

Guitar 2
E|--------------------------------------------------|
B|--------------------------------------------------|
G|----5----5----5-----5-----5------5----------------|
D|--------------------------------------------------|
A|-9----9-----9-----9----9------9-------------------|
D|--------------------------------------------------|
  "She cried when she found it...

Guitar 2
E|--------------------------------------------------|
B|--------------------------------------------------|
G|----5----5----5-----5-----5------5----------------|
D|--------------------------------------------------|
A|-9----9-----9-----9----9------9-------------------|
D|--------------------------------------------------|
  its wings were matted and pressed to its side..." etc.

that part 4 times then

Guitar 2
E|--------------------------------------------------|
B|--------------------------------------------------|
G|--------------------------------------------------|
D|--9-5-4-2-0---------------------------------------|
A|------------4-------------------------------------|
D|--------------------------------------------------|

Guitar 2
E|--------------------------------------------------|
B|--------------------------------------------------|
G|--------------------------------------------------|
D|--9-5-4-2-0---------------------------------------|
A|------------4-------------------------------------|
D|--------------------------------------------------|


then later when the song changes a bit, you know?
the 2nd guitar goes:

Guitar 2
E|--------------------------------------------------|
B|--------------------------------------------------|
G|--------------------------------------------------|
D|--4-5-7-5-4-5-------------------------------------|
A|--------------------------------------------------|
D|--------------------------------------------------|

a few times. pretty simple.

and thats it. there might be some mistakes and if there are, pound your fists in anger.
and if you're smart and can even figger it out email me at ooo@tokyo.com.
cause i would want to know.
Tap to rate this tab
 
# A B C D E F G H I J K L M N O P Q R S T U V W X Y Z