Song name
# A B C D E F G H I J K L M N O P Q R S T U V W X Y Z

Fear Before The March Of Flames - My Fucking Deer Hunter tab

Help us improve GuitareTab! Take a short survey!
My (Fucking) Deer Hunter
Fear Before the March of Flames
The Always Open Mouth
CGCFAA#
Nataku/JJ Murphy


Intro [Keyboard interpretation for guitar]
A#|-------    ---------------|
A |-------    ---------------|
F |--8-10- x3 --10-8----8-10-| This is repeated throught the intro and verses.
C |-7-----    -7-------7-----|
G |-------    ---------------| * = Hit lightly, or use a soft palm mute.
C |-------    ---------------|
     *             *    *

verse/pre-chorus [Keyboard interpretation for guitar]
this comes in right before the chorus and Sounds like:

|---------|
|---------|
|-7t-9t---|
|------9t-|
|---------|
|---------|


chorus (strumming not shown)

theres a wall..  where there's god...//gave them greed
|------------------------------------------------|
|------------------------------------------------|
|------------------------------------------------|
|5555555---------101010101010101010----999999999-|
|5555555---------101010101010101010----999999999-|
|5555555---------101010101010101010----999999999-|


interlude

|--------    ---------- ---------|
|--------    ---------- ---------|
|--------    ---------- ---------|
|-10-9-5-    --12-10-9- --6-10-9-|
|-10-9-5-    -9-------- -9-------|
|-10-9-5- ...---------- ---------|


repeat.

Related for My Fucking Deer Hunter tab