Guitaretab - guitar tabs
Song name
# A B C D E F G H I J K L M N O P Q R S T U V W X Y Z

Fear Factory - My Grave tab

Please note, that this is first guitar tab i have ever made, so don't get mad if
 there are mistakes.


!!! --- Listen every part's rhytm from the original song --- !!!


x  = Palm mute
() = pinch harmonic


Intro: ---> turn your guitar's volume knob about 20% open

|-------------------------|---------------------------||-------------------------|- |
|-------------------------|-------------------------------------------------------- |
|-------------------------|-------------------------------------------------------- |
|-------------------------|-------------------------------------------------------- |
|4--4--4--4-4--4-4--4--4--|8-8--8--8--8-8--8-8--8--8------------------------------- |
|2--2--2--2-2--2-2--2--2--|6-6--6--6--6-6--6-6--6--6------------------------------- |
                           x

|-------------------------|-------------------------|
|-------------------------|-------------------------|
|-------------------------|-------------------------|
|-------------------------|-------------------------|
|-------------------------|-------------------------|
|8--8--8--8-8--8-8--8--8--|8--8--8--8-8--6-6--6--6--|
|4--4--4--4-4--4-4--4--4--|4--4--4--4-4--4-4--4--4--|

1st Chorus:

|---------------------------|---------------------------|
|---------------------------|---------------------------|
|---------------------------|---------------------------|
|---------------------------|---------------------------|
|---------------------------|---------------------------|
|----4----4--4-----4-----4--|----8----8--8-----8-----8--|
|22222-2222--2--2222--2222--|66666-6666--6--6666--6666--|
 xxxx  xxx      xxx   xxx    xxxx  xxx      xxx   xxx


|---------------------------|---------------------------|
|---------------------------|---------------------------|
|---------------------------|---------------------------|
|---------------------------|---------------------------|
|---------------------------|---------------------------|
|----6----6--6-----6-----6--|----6----6--6-----6-----8--|
|44444-4444--4--4444--4444--|44444-4444--4--4444--6666--|
 xxxx  xxx      xxx   xxx    xxxx  xxx      xxx   xxx


|---------------------------|---------------------------|
|---------------------------|---------------------------|
|---------------------------|---------------------------|
|---------------------------|---------------------------|
|---------------------------|---------------------------|
|----4----4--4-----4-----4--|----8----8--8-----8-----8--|
|22222-2222--2--2222--2222--|66666-6666--6--6666--6666--|
 xxxx  xxx      xxx   xxx    xxxx  xxx      xxx   xxx


|---------------------------|---------------------------|
|---------------------------|---------------------------|
|---------------------------|---------------------------|
|---------------------------|---------------------------|
|---------------------------|---------------------------|
|----6----6--6-----6--------|----6----6--6-----6--------|
|44444-4444--4--4444--444444|44444-4444--4--4444--666666|
 xxxx  xxx      xxx   xxxxxx xxxx  xxx      xxx   xxxxxx

|-------------------------------|
|-------------------------------|
|-------------------------------|
|-------------------------------|
|-------------------------------|
|--------4------------4---------|
|222222222----222222222----2--2-|
 xxxxxxxx     xxxxxxxx     x  x

1.Verse: x2 (When played 2nd time, last two bars are played twice)

|----------------------------|----------------------------|
|----------------------------|----------------------------|
|----------------------------|----------------------------|
|----------------------------|----------------------------|
|----------------------------|----------------------------|
|----------------------------|----------------------------|
|222222--2--2--222222-222222-|222222--2--2--222222-222222-|
 xxxxxx  x  x  xxxxxx xxxxxx  xxxxxx  x  x  xxxxxx xxxxxx

|----------------------------|----------------------------|
|----------------------------|----------------------------|
|----------------------------|----------------------------|
|----------------------------|----------------------------|
|----------------------------|----------------------------|
|----------------------------|----------------------------|
|222222--2--2--222222-222222-|222222--2--2--332222-332222-|
 xxxxxx  x  x  xxxxxx xxxxxx


|-------------------------------|-------------------------------|
|-------------------------------|-------------------------------|
|-------------------------------|-------------------------------|
|-------------------------------|-------------------------------|
|-------------------------------|-------------------------------|
|-------------------------------|-------------------------------|
|------(5)----------------------|------(5)----------------------|
|222222-----2--2--222222-222222-|222222-----2--2--222222-222222-|
 xxxxxx     x  x  xxxxxx xxxxxx


|-------------------------------|-------------------------------|
|-------------------------------|-------------------------------|
|-------------------------------|-------------------------------|
|-------------------------------|-------------------------------|
|-------------------------------|-------------------------------|
|-------------------------------|-------------------------------|
|------(5)----------------------|------(5)----------------------|
|222222-----2--2--222222-222222-|222222-----2--2--332222-332222-|
 xxxxxx     x  x  xxxxxx xxxxxx


|-------------------------|-------------------------|
|-------------------------|-------------------------|
|-------------------------|-------------------------|
|-------------------------|-------------------------|
|-------------------------|-------------------------|
|-----5--------7------8---|-----5--------7------8---|
|222223---222225---2226---|222223---222225---2226---|
 xxxxx    xxxxx    xxx

2nd Chorus: ---> same as first


2.verse: ---> Starts with drums and vocals, and then:

|---------------|-------------------------------|
|---------------|-------------------------------|
|---------------|-------------------------------|
|---------------|-------------------------------|
|---------------|-------------------------------|
|---------------|------(5)----------------------|
|-332222-332222-|222222-----2--2--222222-222222-|
  xxxxxx xxxxxx  xxxxxx     x  x  xxxxxx xxxxxx


|-------------------------------|-------------------------------|
|-------------------------------|-------------------------------|
|-------------------------------|-------------------------------|
|-------------------------------|-------------------------------|
|-------------------------------|-------------------------------|
|------(5)----------------------|------(5)----------------------|
|222222-----2--2--222222-222222-|222222-----2--2--222222-222222-|
 xxxxxx     x  x  xxxxxx xxxxxx

[ Tab from: http://www.guitaretab.com/f/fear-factory/100058.html ]
|-------------------------------|   ----- |
|-------------------------------|   ----- |
|-------------------------------|   ----- |
|-------------------------------| break-- |
|-------------------------------|   ----- |
|------(5)----------------------|      -- |
|222222-----2--2--332222-332222-|      -- |
 xxxxxx     x  x  xxxxxx xxxxxx


 Play this bar 4 times
|-------------------------|
|-------------------------|
|-------------------------|
|-------------------------|
|-------------------------|
|-----5--------7------8---|
|222223---222225---2226---|
 xxxxx    xxxxx    xxx

3rd Chorus: ---> same as 1st & 2nd


Then chorus continues without the fast picking between the chords

|--------------------------------|--------------------------------|
|--------------------------------|--------------------------------|
|--------------------------------|--------------------------------|
|--------------------------------|--------------------------------|
|--------------------------------|--------------------------------|
|4---4---4-4---4---4-4---4---4---|8---8---8-8---8---8-8---8---8---|
|2---2---2-2---2---2-2---2---2---|6---6---6-6---6---6-6---6---6---|
	 x	   x			  x	    x

|--------------------------------|--------------------------------|
|--------------------------------|--------------------------------|
|--------------------------------|--------------------------------|
|--------------------------------|--------------------------------|
|--------------------------------|--------------------------------|
|8---8---8-8---8---6-6---6---6---|8---8---8-8---8---6-6---6-------|
|4---4---4-4---4---4-4---4---4---|4---4---4-4---4---4-4---4---4-4-|
	 x	   x			  x	    x         x x

And then: ---> previous section continues quite similar, but keep in mind,
               that some palm muted chords are now played open

|--------------------------------|--------------------------------|
|--------------------------------|--------------------------------|
|--------------------------------|--------------------------------|
|--------------------------------|--------------------------------|
|--------------------------------|--------------------------------|
|4---4---4-4---4---4-4---4---4---|8---8---8-8---8---8-8---8---8---|
|2---2---2-2---2---2-2---2---2---|6---6---6-6---6---6-6---6---6---|
         x                                x

|--------------------------------|--------------------------------|
|--------------------------------|--------------------------------|
|--------------------------------|--------------------------------|
|--------------------------------|--------------------------------|
|--------------------------------|--------------------------------|
|8---8---8-8---8---6-6---6---6---|8---8---8-8---8---6-6---6-------|
|4---4---4-4---4---4-4---4---4---|4---4---4-4---4---4-4---4---4-4-|
         x			          x                   x x

|--------------------------------|--------------------------------|
|--------------------------------|--------------------------------|
|--------------------------------|--------------------------------|
|--------------------------------|--------------------------------|
|--------------------------------|--------------------------------|
|4---4---4-4---4---4-4---4---4---|8---8---8-8---8---8-8---8---8---|
|2---2---2-2---2---2-2---2---2---|6---6---6-6---6---6-6---6---6---|
         x                                x

|--------------------------------|--------------------------------|
|--------------------------------|--------------------------------|
|--------------------------------|--------------------------------|
|--------------------------------|--------------------------------|
|--------------------------------|--------------------------------|
|8---8---8-8---8---6-6---6---6---|8---8---8-8---8---6-6---6-------|
|4---4---4-4---4---4-4---4---4---|4---4---4-4---4---4-4---4---4-4-|
         x			          x                   x x

|------------------------|
|------------------------|
|------------------------|
|------------------------|
|------------------------|
|4-----------------------|
|2-----------------------|

Then comes a long non-guitar section and after that:

4th Chorus: x2

|---------------------------|---------------------------|
|---------------------------|---------------------------|
|---------------------------|---------------------------|
|---------------------------|---------------------------|
|---------------------------|---------------------------|
|----4----4--4-----4-----4--|----8----8--8-----8-----8--|
|22222-2222--2--2222--2222--|66666-6666--6--6666--6666--|
 xxxx  xxx      xxx   xxx    xxxx  xxx      xxx   xxx


|---------------------------|---------------------------|
|---------------------------|---------------------------|
|---------------------------|---------------------------|
|---------------------------|---------------------------|
|---------------------------|---------------------------|
|----6----6--6-----6-----6--|----6----6--6-----6-----8--|
|44444-4444--4--4444--4444--|44444-4444--4--4444--6666--|
 xxxx  xxx      xxx   xxx    xxxx  xxx      xxx   xxx

Outro: it's like chorus, but there is more picking between a few chords

|---------------------------|---------------------------|
|---------------------------|---------------------------|
|---------------------------|---------------------------|
|---------------------------|---------------------------|
|---------------------------|---------------------------|
|----4----4--4-----4-----4--|----8----8--8-----8-----8--|
|2222222222222--2222--2222--|6666666666666--6666--6666--|
 xxxx xxxx xx   xxx   xxx    xxxx xxxx xx   xxx   xxx


|---------------------------|---------------------------|
|---------------------------|---------------------------|
|---------------------------|---------------------------|
|---------------------------|---------------------------|
|---------------------------|---------------------------|
|----6----6--6-----6-----6--|----8----8--8-----6-----6--|
|4444444444444--4444--4444--|4444444444444--4444--4444--|
 xxxx xxxx xx   xxx   xxx    xxxx xxxx xx   xxx   xxx


|---------------------------|---------------------------|
|---------------------------|---------------------------|
|---------------------------|---------------------------|
|---------------------------|---------------------------|
|---------------------------|---------------------------|
|----4----4--4-----4-----4--|----8----8--8-----8-----8--|
|2222222222222--2222--2222--|6666666666666--6666--6666--|
 xxxx xxxx xx   xxx   xxx    xxxx xxxx xx   xxx   xxx


|---------------------------|-----------------------|
|---------------------------|-----------------------|
|---------------------------|-----------------------|
|---------------------------|-----------------------|
|---------------------------|-----------------------|
|----8----8--8-----6-----6--|----8----8--8----------|
|4444444444444--4444--4444--|4444444444444--66666666|
 xxxx xxxx xx   xxx   xxx    xxxx xxxx xx   xxxxxxxx

|------------------------------|
|------------------------------|
|------------------------------|
|------------------------------|
|------------------------------|
|------------------------------|
|-------4-----------4--------4-|
|22222222----22222222----22222-|
 xxxxxxx     xxxxxxx     xxxxx

!!! YOU CAN COMMENT THIS TAB VIA EMAIL ---> sami_nurminen_12@msn.com !!!
Related for My Grave tab