Guitaretab - guitar tabs
Song name
# A B C D E F G H I J K L M N O P Q R S T U V W X Y Z

Fear Factory - Suffer Age tab

May be a little messed up, sounds ok to me though. Questions or comments e-mail me at 
figure out where p.m.'s are [sorry].

Fear Factory-Suffer Age

Intro
B |-0-0-0-0-0-0-0-0-|-0-0-0-0-0-0-0-0-|-0-0-0-0-0-0-0-0-|-0-0-0-0-0-0-0-0-||
F#|-5-5-5-5-5-5-5-5-|-5-5-5-5-5-5-5-5-|-5-5-5-5-5-5-5-5-|-5-5-4-4-4-4-5-5-||
D |-----------------|-----------------|-----------------|-----------------||
A |-----------------|-----------------|-----------------|-----------------||
E |-----------------|-----------------|-----------------|-----------------||
B |-----------------|-----------------|-----------------|-----------------||

Riff 1 (over intro)
B |-----------------|-----------------|-----------------|-----------------||
F#|-----------------|-----------------|-----------------|-----------------||
D |-----------------|-----------------|-----------------|-----------------||
A |-2---------------|(2)--------------|-5---------------|-4-----------5---||
E |-2---------------|(2)--------------|-5---------------|-4-----------5---||
B |-0---------------|(0)--------------|-3---------------|-2-----------3---||
Play Riff 1 - 6x total

Riff 2
B |-----------------|-----------------|-----------------|-----------------|
F#|-----------------|-----------------|-----------------|-----------------|
D |-----------------|-----------------|-----------------|-----------------|
A |-----------------|-----------------|-----------------|-----------------|
E |-2---------------|(2)--------------|-2-3-4-3-2-------|(2)--------------|
B |-0---------------|(0)--------------|-0-1-2-1-0-------|(0)--------------|

B |-----------------|-----------------|-----------------|-----------------|
F#|-----------------|-----------------|-----------------|-----------------|
D |-----------------|-----------------|-----------------|-----------------|
A |-----------------|-----------------|-----------------|-----------------|
E |-2-3-4-3-2-------|(2)--------------|-2-3-4-3-2-------|(2)--------------|
B |-0-1-2-1-0-------|(0)--------------|-0-1-2-1-0-------|(0)--------------|

B |-----------------|-----------------|-------------|-------------||
F#|-----------------|-----------------|-------------|-------------||
D |-----------------|-----------------|-------------|-------------||
A |-----------------|-----------------|-----------R-|-----------R-||
E |-2-3-4-3-2-------|(2)--------------|-2-3-4-3-2---|-2-3-4-3-2---||
B |-0-1-2-1-0-------|(0)--------------|-0-1-2-1-0---|-0-1-2-1-0---||


Riff 3
B |-----------------|-----------------|-------------|-------------|
F#|-----------------|-----------------|-------------|-------------|
D |-4-4-4-4-4-4-4444|-4-4-4-4-44444444|-------------|-------------|
A |-----------------|-5-5-5-5-55555555|-----------R-|-----------R-|
E |-----------------|-----------------|-2-3-4-3-2---|-2-3-4-3-2---|
B |-----------------|-----------------|-0-1-2-1-0---|-0-1-2-1-0---|
[ Tab from: http://www.guitaretab.com/f/fear-factory/106366.html ]
B |-----------------|-----------------|-------------|-------------|
F#|-3-3-3-3-3-3-3333|-3-3-3-3-33333333|-------------|-------------|
D |-----------------|-5-5-5-5-55555555|-------------|-------------|
A |-----------------|-----------------|-----------R-|-----------R-|
E |-----------------|-----------------|-2-3-4-3-2---|-2-3-4-3-2---|
B |-----------------|-----------------|-0-1-2-1-0---|-0-1-2-1-0---|

B |-----------------|-----------------|-------------|-------------|
F#|-----------------|-----------------|-------------|-------------|
D |-4-4-4-4-4-4-4444|-4-4-4-4-44444444|-------------|-------------|
A |-----------------|-5-5-5-5-55555555|-----------R-|-----------R-|
E |-----------------|-----------------|-2-3-4-3-2---|-2-3-4-3-2---|
B |-----------------|-----------------|-0-1-2-1-0---|-0-1-2-1-0---|

B |-----------------|-----------------|---------||
F#|-3-3-3-3-3-3-3333|-3-3-3-3-33333333|---------||
D |-----------------|-5-5-5-5-55555555|---------||
A |-----------------|-----------------|-----R---||
E |-----------------|-----------------|-2-------||
B |-----------------|-----------------|-0-------||

Pre-Riff 4   (fast trem picking)
B |-----------------|-----------------||2x
F#|-----------------|-----------------||
D |-----------------|-----------------||
A |-----------------|-----------------||
E |-----777777776666|-----777777773-5-|| Guitar 1
B |-0000------------|-0000--------1-3-||

B |-----------------|-----------------||2x
F#|-----------------|-----------------||
D |-----------------|-----------------||
A |---R-------------|---R-------------||
E |-2---------------|-2-----------3-5-|| Guitar 2
B |-0---------------|-0-----------1-3-||

Riff 4   (fast trem picking)
B |-----------------|-----------------|-----------------|-----------------||
F#|-----------------|-----------------|-----------------|-----------------||
D |-----------------|-----------------|-----------------|-----------------||
A |-----------------|-----------------|-----------------|-----------------||
E |-----777777776666|-----77777777----|-----777777776666|-----777777773-5-||
B |-0000------------|-0000--------1133|-0000------------|-0000--------1-3-||
Play Riff 4 - 2x total

Riff 5
B |-----------------|-----------------||4x
F#|-----------------|-----------------||
D |-----------------|-----------------||
A |-----------------|-----------------||
E |-2---4-3-4-7-----|-2---4-3-4-2-----||
B |-0---2-1-2-5-----|-0---2-1-2-0-----||

Play Pre-Riff 4
Play Riff 4 - 2x
Play Riff 5 - 4x

Riff 6
B |-----------------|-----------------||4x
F#|-----------------|-----------------||
D |-----------------|-----------------||
A |-----------------|-----------------||
E |-----4-------3---|-----4-------3---||
B |-000-2---000-1---|-000-2---000-1---||

Riff 7
B |-----------------|-----------------||8x (guitar 1)
F#|-----------------|-----------------||4x (guitar 2)
D |-5---------7-8-7-|-4-------8---7---||
A |-----------------|-----------------||
E |-3-------005-6-5-|-2-----006-005-00||
B |-----------------|-----------------||

Riff 7a   (guitar 2 after Riff 7)
B |-----------------|-----------------||4x
F#|-----------------|-----------------||
D |-----------------|---------8---7---||
A |-2---------------|-1---------------||
E |-3-------005h6p5-|-2-----006-005-00||
B |-----------------|-----------------||

Play Pre-Riff 4
Play Riff 4 - 2x

The end.

WOO!
Related for Suffer Age tab