Guitaretab - guitar tabs
Song name
# A B C D E F G H I J K L M N O P Q R S T U V W X Y Z

Fear Factory - Free The Weed tab

Title:Free the weed
Artist:Fear Factory & SLipknot & Korn  
Tabbed by: Domzxz
Email: codimeon@hotmail.it                            

Standard Tuning

I'm sure that it is the correct solo of this  
song....just listen to the song for the timing of the final 
part...please if there are any problem email 
me...Domzxz (codimeon@hotmail.it)...



e||--15----12-13p12------------12-13-12h13-----------------|
B||-----12-----------12h13-15---------------15-12-15-13-12-|
G||--------------------------------------------------------|
D||--------------------------------------------------------|
A||--------------------------------------------------------|
E||--------------------------------------------------------|
[ Tab from: http://www.guitaretab.com/f/fear-factory/115109.html ]
       
                                                 ~~~~
e|-------------------------------------------------------|
B|-----12-13--12h13p12-----13-12-13----13----13----------|
G|--14------------------14----------14----12----10-(10)--|
D|----------------------------------------------------14-|
A|-------------------------------------------------------|
E|-------------------------------------------------------|


                                               ~~~~~~~~~ 
e|--------------------12---13---15-(15)-(15)b-17--|--(17)-------------||
B|-----------12-13-15-----------------------------|-------------------||
G|--11-12-14--------------------------------------|-------------------||
D|------------------------------------------------|-------------------||
A|------------------------------------------------|-------------------||
E|------------------------------------------------|-------------------||


(n) - tied note
h - hammer on
p - pull off
b - full bend
~ - vibrato

Related for Free The Weed tab
Advertisement will be closed in 10 seconds