Song name
# A B C D E F G H I J K L M N O P Q R S T U V W X Y Z

Fear Factory - Powershifter tab

The New Fear Factory Song: Powershifter

Tab by CyberwastePuppet (youtube.com/CyberwastePuppet)
Tried my best....
Sorry Palm Muting not included, and the song structure is partial... still hope you enjoy

   A                         B
D|-------------------------|-------------------------------------|
A|-------------------------|-------------------------------------|
E|-(times 8+)---(times 4)--|-RIFF A + ending---------------------|
B|-1------------1----------|-----------0011----------------------|

  C               D                    E
D|-------------|----------------------|----------------------------|
A|-------------|--------------------5-|------------------------4-6-|
E|-------------|--------------------3-|-trempick--------2------2-4-|
B|-333--3-3-3--|--33333332--3322-33---|----2--------2-2-0--2222----|
 
    F
D|-------------------------------------------------------------|
A|------------3--5--7--4--6--5-------------3--5--7--6--4--5----|
E|--trempick--1--3--5--2--4--3----trempick-1--3--5--4--2--3----|
B|----2--------00-00-00-00-00--------1-------------------------|

  G                     H
D|---------------------|------------------------------------------|
A|---3--5--7--6--4--5--|------------------------------------------|
E|---1--3--5--4--2--3--|---5----7----9----8----6----5-------------|
B|-00-00-00-00-00-00---|00-3-00-5-00-7-00-6-00-4-00-3-00----------|

  I x2                 J
D|----------|---------|------------------------------------------|
A|----------|---------|------------------------------------------|
E|-------7b-|------5b-|--(-trempick--)---------------------------|
B|-3333-----|---33----|---4-3-5-4-3-5---44443--------------------|

  K x2               L listen to the song for picking + add Phaser
D|----------|-------|--5---8---3---6-----5--8--3----------------|
A|------6b--|---4b--|--5---8---3---6-----5--8--3----------------|
E|----------|-------|--3---6---1---4-----3--6--1--trempicking---|
B|-3333-----|-33----|----------------------------0000000000000--|

 M(the ending part)
D|----------------------|
A|---3--5--7--6---------|
E|---1--3--5--4--11/22--|
B|-00-00-00-00-00-------|


Ax5
BX4
CX8
DX4
EX4
BX
CX
DX
EX
FX
ETC... you'll for sure figure it out just listen to the song
Tap to rate this tab
# A B C D E F G H I J K L M N O P Q R S T U V W X Y Z