Song name
# A B C D E F G H I J K L M N O P Q R S T U V W X Y Z

Fear Factory - Archetype tab

 _____________   ____________
|       ______| |      ______|
|      |        |      |
|      |-----|  |      |-----|
|      |_____|  |      |_____|
|      |        |      |
|      |        |      |
|      |        |      |
|______|   EAR  |______|   ACTORY

Artist: Fear Factory
Album: Archetype
Song: Archetype
Tuning: B,E,A,D,G,B
Tabbed By: Thommoboy

B||-------------------------------------------------------------------------------||
G||-------------------------------------------------------------------------------||
D||-------------------------------------------------------------------------------||
A||-666-666-666-666-66666666--444-444-444-444-44444444--222-222-222-222-222222----||
E||-666-666-666-666-66666666--444-444-444-444-44444444--222-222-222-222-222222----||
B||-444-444-444-444-44444444--222-222-222-222-22222222--000-000-000-000-000000----||

B||---------------------------||
G||---------------------------||
D||---------------------------||
A||-444-444-444-444-44444444--||
E||-444-444-444-444-44444444--||
B||-222-222-222-222-22222222--||  X2


B||-------------------------------------------------------------------------------||
G||-------------------------------------------------------------------------------||
D||-------------------------------------------------------------------------------||
A||-222--222--222-222-222--222--222-222-222-222-222-222-222-222-222-222-222-222---||
E||-222--222--222-222-222--222--222-222-222-222-222-222-222-222-222-222-222-222---||
B||-000--000--000-000-000--000--000-000-000-000-000-000-000-000-000-000-000-000---||
 
B||-------------------------------------------------------------------------------||
G||-------------------------------------------------------------------------------||
D||-------------------------------------------------------------------------------||
A||-222--222--222-222-222--222--222-222-222-222-222-222-222-222-222--44444444-----||
E||-222--222--222-222-222--222--222-222-222-222-222-222-222-222-222--44444444-----||
B||-000--000--000-000-000--000--000-000-000-000-000-000-000-000-000--22222222-----||
                                                                   pm--------

B||-------------------------------------------------------------------------------||
G||-------------------------------------------------------------------------------||
D||-------------------------------------------------------------------------------||
A||-666-666-666-666-66666666--444-444-444-444-44444444--222-222-222-222-222222----||
E||-666-666-666-666-66666666--444-444-444-444-44444444--222-222-222-222-222222----||
B||-444-444-444-444-44444444--222-222-222-222-22222222--000-000-000-000-000000----||
                                                                      
B||---------------------------||
G||---------------------------||
D||---------------------------||
A||-444-444-444-444-44444444--||
E||-444-444-444-444-44444444--||
B||-222-222-222-222-22222222--||X2
                  pm--------

B||---------------------------------------------------------------------------------------------||
G||---------------------------------------------------------------------------------------------||
D||---------------------------------------------------------------------------------------------||
A||-222--222--222-222-222--222--222-222-222-222-222-222-222-222-222-222-222-222-222-222-222-222-||
E||-222--222--222-222-222--222--222-222-222-222-222-222-222-222-222-222-222-222-222-222-222-222-||
B||-000--000--000-000-000--000--000-000-000-000-000-000-000-000-000-000-000-000-000-000-000-000-||

B||---------------------------------------------------------------------------------||
G||---------------------------------------------------------------------------------||
D||---------------------------------------------------------------------------------||
A||-222--222--222-222-222--222--222-222-222-222-222-222-222-222-222-222-222-222-----||
E||-222--222--222-222-222--222--222-222-222-222-222-222-222-222-222-222-222-222-----||
B||-000--000--000-000-000--000--000-000-000-000-000-000-000-000-000-000-000-000-----||

B||-----------------------------------------------------------------------------||
G||-----------------------------------------------------------------------------||
D||-----------------------------------------------------------------------------||
A||-222--222--222-222-222--222--222-222-222-222-222-222-222-222-222--44444444---||
E||-222--222--222-222-222--222--222-222-222-222-222-222-222-222-222--44444444---||
B||-000--000--000-000-000--000--000-000-000-000-000-000-000-000-000--22222222---||
 
                                                                  pm--------
B||-------------------------------------------------------------------------------||
G||-------------------------------------------------------------------------------||
D||-------------------------------------------------------------------------------||
A||-666-666-666-666-66666666--444-444-444-444-44444444--222-222-222-222-222222----||
E||-666-666-666-666-66666666--444-444-444-444-44444444--222-222-222-222-222222----||
B||-444-444-444-444-44444444--222-222-222-222-22222222--000-000-000-000-000000----||
                                                                      
B||---------------------------||
G||---------------------------||
D||---------------------------||
A||-444-444-444-444-44444444--||
E||-444-444-444-444-44444444--||
B||-222-222-222-222-22222222--||X2
                  pm--------

B||---------------------||
G||---------------------||
D||---------------------||
A||---------------------||
E||---------------------||
D||-4-22-4-4-2222-66-7-||X8

B||---4---------------||
G||----4--4---4-------||
D||------------4------||
A||-------------------||
E||--6---4---2--------||
D||-4---2---0---0-2---||

                                                                   pm--------
B||-------------------------------------------------------------------------------||
G||-------------------------------------------------------------------------------||
D||-------------------------------------------------------------------------------||
A||-666-666-666-666-66666666--444-444-444-444-44444444--222-222-222-222-222222----||
E||-666-666-666-666-66666666--444-444-444-444-44444444--222-222-222-222-222222----||
B||-444-444-444-444-44444444--222-222-222-222-22222222--000-000-000-000-000000----||
                                                                      
B||---------------------------||
G||---------------------------||
D||---------------------------||
A||-444-444-444-444-44444444--||
E||-444-444-444-444-44444444--||
B||-222-222-222-222-22222222--||X2
                  pm--------

B||---------------------------------------------------------------------||
G||---------------------------------------------------------------------||
D||---------------------------------------------------------------------||
A||-66-66-66-66-66666666--44-44-44-44-44444444--22-22-22-22-22222222----||
E||-66-66-66-66-66666666--44-44-44-44-44444444--22-22-22-22-22222222----||
B||-44-44-44-44-44444444--22-22-22-22-22222222--00-00-00-00-00000000----||
                                                                      
B||-----------------------||
G||-----------------------||
D||-----------------------||
A||-44-44-44-44-44444444--||
E||-44-44-44-44-44444444--||
B||-22-22-22-22-22222222--|| untill end
              pm--------




Tap to rate this tab
# A B C D E F G H I J K L M N O P Q R S T U V W X Y Z