Song name
# A B C D E F G H I J K L M N O P Q R S T U V W X Y Z

Fear Factory - Millennium tab

Artist: Fear Factory
Album: Transgression
Song: Millenium
Tabbed By Thommoboy



Riff A

  |-----------------|
  |-----------------|
  |-----------------|
  |-------0------0h2|
  |--0h2----0h2-----|
  |-----------------|


Riff B                  Riff C                Riff D

  |--------------------|---------------------|----------|
  |--------------------|---------------------|----------|
  |--------------------|---------------------|----------|
  |-2--2--2----2----2--|---------------------|-3----2---|
  |-2--2--2----2----2--|---------------------|-3----2---|
  |-0--0--0----0----0--|-0--3--2--1--0--3--2-|-1----0---|

Bridge

  |---------------------------------------------------|
  |---------------------------------------------------|
  |---------------------------------------------------|
  |-3----2--2--2----3----2--2--2----3----2--2--2----3-|
  |-3----2--2--2----3----2--2--2----3----2--2--2----3-|
  |-1----0--0--0----1----0--0--0----1----0--0--0----1-|



Pre-Chorus

  |----------------------------------------|-----------------|
  |----------------------------------------|-----------------|
  |----------------------------------------|-----2----5----3-|
  |-2----2----2----2----2--2--2-------2--2-|-2---2----5----3-|
  |-2----2----2----2----2--2--2-------2--2-|-2---0----3----1-|
  |-0----0----0----0----0--0--0-------0--0-|-0---------------|


  Riff A
  |--------------------------------|--------------------|----------|
  |--------------------------------|--------------------|----------|
  |--------------------------------|--------------------|----------|
  |-2--2--2----2--2--2----2--2--2--|-2--2--2----2--2--2-|----------|
  |-2--2--2----2--2--2----2--2--2--|-2--2--2----2--2--2-|----------|
  |-0--0--0----0--0--0----0--0--0--|-0--0--0----0--0--0-|----------|


  |---------------------------------------|
  |---------------------------------------|
  |-4--------7----4-----------------------|
  |-4--------7----4----2--2--2---2--2--2--|
  |-2--------5----2----2--2--2---2--2--2--|
  |--------------------0--0--0---0--0--0--|

Listen to the song you will get the hang of it it is a very simple song
Tap to rate this tab
 
# A B C D E F G H I J K L M N O P Q R S T U V W X Y Z