Song name
# A B C D E F G H I J K L M N O P Q R S T U V W X Y Z

Fear Factory - Contagion tab

-------------------------------------------------------------------------------
			     CONTAGION - FEAR FACTORY
-------------------------------------------------------------------------------
Song: Contagion
Artist: Fear Factory
Album: Transgression
Tabbed by: thommoboy
Email: lambofgod2009@live.com.au

Tuning: 7 String B,E,A,D,G,B,E

Guitar 1: (No Distortion)
e|---------------------------------------------------------------------------|
B|---------------------------------------------------------------------------|
G|---------------------------------------------------------------------------|
D|---------------------------------------------------------------------------|
A|---------------------------------------------------------------------------|
E|---------------------------------------------------------------------------|
B|-2-3-2-2-3-3-3-2-3-2-2-3-3-3-2-3-2-2-3-3-3-2-3-2-2-3-2---------------------|
 pm-----------------------------------------------------

Guitar 2: (Distortion)
e|---------------------------------------------------------------------------|
B|---------------------------------------------------------------------------|
G|---------------------------------------------------------------------------|
D|---------------------------------------------------------------------------|
A|---------------------------------------------------------------------------|
E|-2-3-2-2-3-3-3-2-3-2-2-3-3-3-2-3-2-2-3-3-3-2-3-2-2-3-3-2-------------------|
B|-2-3-2-2-3-3-3-2-3-2-2-3-3-3-2-3-2-2-3-3-3-2-3-2-2-3-3-2-------------------|

e|---------------------------------------------------------------------------|
B|---------------------------------------------------------------------------|
G|---------------------------------------------------------------------------|
D|---------------------------------------------------------------------------|
A|---------------------------------------------------------------------------|
E|-2-3-2-2-3-3-3-2-3-2-2-3-3-3-2-3-2-2-3-3-3-2-3-2-2-3-3-2-------------------|
B|-2-3-2-2-3-3-3-2-3-2-2-3-3-3-2-3-2-2-3-3-3-2-3-2-2-3-3-2-------------------|

Guitar 1: (Palm Muted, Distortion)
e|---------------------------------------------------------------------------|
B|---------------------------------------------------------------------------|
G|---------------------------------------------------------------------------|
D|---------------------------------------------------------------------------|
A|---------------------------------------------------------------------------|
E|---------------------------------------------------------------------------|
B|-2-3-2-2-3-3-3-2-3-2-2-3-3-3-2-3-2-2-3-3-3-2-3-2-2-3-2---------------------|
 pm-----------------------------------------------------

e|---------------------------------------------------------------------------|
B|---------------------------------------------------------------------------|
G|---------------------------------------------------------------------------|
D|---------------------------------------------------------------------------|
A|---------------------------------------------------------------------------|
E|---------------------------------------------------------------------------|
B|-2-3-2-2-3-3-3-2-3-2-2-3-3-3-2-3-2-2-3-3-3-2-3-2-2-3-2---------------------|
 pm-----------------------------------------------------

Chorus:
Guitar 2: (Distortion)
e|---------------------------------------------------------------------------|
B|---------------------------------------------------------------------------|
G|---------------------------------------------------------------------------|
D|---------------------------------------------------------------------------|
A|-99999999999999----77777777777777----55555555555555------------------------|
E|-77777777777777----55555555555555----33333333333333----555555555555--------|
B|-------------------------------------------------------333333333333--------|

e|---------------------------------------------------------------------------|
B|---------------------------------------------------------------------------|
G|---------------------------------------------------------------------------|
D|---------------------------------------------------------------------------|
A|-99999999999999----77777777777777----55555555555555------------------------|
E|-77777777777777----55555555555555----33333333333333----555555555555--------|
B|-------------------------------------------------------333333333333--------|


Guitar 1: (Palm Muted, Distortion)

e|-------------------------------------------|
B|-------------------------------------------|
G|-------------------------------------------|
D|-------------------------------------------|
A|-------------------------------------------|
E|-------------------------------------------|
B|-2-3-2-2-3-3-3-2-3-2-3---------------------|
 pm------------------------------------------|


e|---------------------------------------------------------------------------|
B|---------------------------------------------------------------------------|
G|---------------------------------------------------------------------------|
D|---------------------------------------------------------------------------|
A|---------------------------------------------------------------------------|
E|---------------------------------------------------------------------------|
B|-2-3-2-2-3-3-3-2-3-2-2-3-3-3-2-3-2-2-3-3-3-2-3-2-2-3-2---------------------|
 pm-----------------------------------------------------

e|---------------------------------------------------------------------------|
B|---------------------------------------------------------------------------|
G|---------------------------------------------------------------------------|
D|---------------------------------------------------------------------------|
A|---------------------------------------------------------------------------|
E|---------------------------------------------------------------------------|
B|-2-3-2-2-3-3-3-2-3-2-2-3-3-3-2-3-2-2-3-3-3-2-3-2-2-3-2---------------------|
 pm-----------------------------------------------------


Chorus:
Guitar 2: (Distortion)
e|---------------------------------------------------------------------------|
B|---------------------------------------------------------------------------|
G|---------------------------------------------------------------------------|
D|---------------------------------------------------------------------------|
A|-99999999999999----77777777777777----55555555555555------------------------|
E|-77777777777777----55555555555555----33333333333333----555555555555--------|
B|-------------------------------------------------------333333333333--------|

e|---------------------------------------------------------------------------|
B|---------------------------------------------------------------------------|
G|---------------------------------------------------------------------------|
D|---------------------------------------------------------------------------|
A|-99999999999999----77777777777777----55555555555555------------------------|
E|-77777777777777----55555555555555----33333333333333----555555555555--------|
B|-------------------------------------------------------333333333333--------|

Chorus:
Guitar 2: (Distortion)
e|---------------------------------------------------------------------------|
B|---------------------------------------------------------------------------|
G|---------------------------------------------------------------------------|
D|---------------------------------------------------------------------------|
A|-99999999999999----77777777777777----55555555555555------------------------|
E|-77777777777777----55555555555555----33333333333333----555555555555--------|
B|-------------------------------------------------------333333333333--------|

e|---------------------------------------------------------------------------|
B|---------------------------------------------------------------------------|
G|---------------------------------------------------------------------------|
D|---------------------------------------------------------------------------|
A|-99999999999999----77777777777777----55555555555555------------------------|
E|-77777777777777----55555555555555----33333333333333----555555555555--------|
B|-------------------------------------------------------333333333333--------|


************************************

| /   slide up
| \   slide down
| h   hammer-on
| p   pull-off
| ~   vibrato
| +   harmonic
| x   Mute note
| b   Bend
| pb  Pre-bend
| br  Bend release
| pbr Pre-bend release
| brb Bend release bend

************************************
Tap to rate this tab
# A B C D E F G H I J K L M N O P Q R S T U V W X Y Z