Fear Factory - Scumgrief tab

Artist: Fear Factory
Album: Soul Of A New Machine
Song: Scumgrief
Tuning: B Standard For A Seven String(B,E,A,D,G,B,E)
Tabbed By: Thommoboy and Nick Moodie

This is my favorite song from the album!

Intro/Chorus:

E--------------------------------|
B--------------------------------|
G--------------------------------|
D--------------------------------|
A-2----5-5-----------------------|
E-2----3-2--5--------------------|
B-0---------3----3-3-3-5-5-5-3-2-|

Verse:

E-------------------|
B-------------------|
G-------------------|
D-------------------|
A-3-2-2-2-3-2-2-2-3-|
E-3-2-2-2-3-2-2-2-3-|
B-5-0-0-0-5-0-0-0-5-| 

E-----------------------|
B-----------------------|
G-----------------------|
D-----------------------|
A-3-2-2-2-3-2-2-2-3--6^-|
E-3-2-2-2-3-2-2-2-3-----|
B-5-0-0-0-5-0-0-0-5-----| 

E-------------------|
B-------------------|
G-------------------|
D-------------------|
A-3-2-2-2-3-2-2-2-3-|
E-3-2-2-2-3-2-2-2-3-|
B-5-0-0-0-5-0-0-0-5-| 

E-----------------------|
B-----------------------|
G-----------------------|
D-----------------------|
A-3-2-2-2-3-2-2-2-3--6^-|
E-3-2-2-2-3-2-2-2-3-----|
B-5-0-0-0-5-0-0-0-5-----| 

Chorus:

E--------------------------------|
B--------------------------------|
G--------------------------------|
D--------------------------------|
A-2----5-5-----------------------|
E-2----3-2--5--------------------|
B-0---------3----3-3-3-5-5-5-3-2-|

Verse:

E-------------------|
B-------------------|
G-------------------|
D-------------------|
A-3-2-2-2-3-2-2-2-3-|
E-3-2-2-2-3-2-2-2-3-|
B-5-0-0-0-5-0-0-0-5-| 

E-----------------------|
B-----------------------|
G-----------------------|
D-----------------------|
A-3-2-2-2-3-2-2-2-3--6^-|
E-3-2-2-2-3-2-2-2-3-----|
B-5-0-0-0-5-0-0-0-5-----| 

E-------------------|
B-------------------|
G-------------------|
D-------------------|
A-3-2-2-2-3-2-2-2-3-|
E-3-2-2-2-3-2-2-2-3-|
B-5-0-0-0-5-0-0-0-5-| 

E-----------------------|
B-----------------------|
G-----------------------|
D-----------------------|
A-3-2-2-2-3-2-2-2-3--6^-|
E-3-2-2-2-3-2-2-2-3-----|
B-5-0-0-0-5-0-0-0-5-----| 

Chorus:

E--------------------------------|
B--------------------------------|
G--------------------------------|
D--------------------------------|
A-2----5-5-----------------------|
E-2----3-2--5--------------------|
B-0---------3----3-3-3-5-5-5-3-2-|

Tap to rate this tab
 
# A B C D E F G H I J K L M N O P Q R S T U V W X Y Z