Song name
# A B C D E F G H I J K L M N O P Q R S T U V W X Y Z

Fear Factory - The Industrialist tab

Fear Factory
The Industrialist + Recharger Intro
The Industrialist (2012)
Dino Cazares, Burton C. Bell, Rhys Fulber
Tuning: ADGCFAD (7-String)
Tabbed By: Makoto
4/17/2012

This is the new song by Fear Factory just released on 4/16/2012. Here's the link to the 
song via YT: http://www.youtube.com/watch?v=_dxWmJssXH4


I will tab this with two guitars in the chance you want to play with a friend!

I put the notes below the tab in case you want to know the notes.

*This is my first tab ever I don't usually have "the ear for music" but this sounds 
correct imo*


The Industrialist -

Intro & Verse:

Gtr 1: (Clean with effects)

D---------------------------------------|
A---------------------------------------|
F---------------------------------------|
C---------------------------------------|
G---------2-3-2---5-3-----2-------------|
D------5---------------5----------------|
A--0------------------------------------|


D-----------------------------------|
A-----------------------------------|
F-----------------------------------|
C-----------------------------------|
G------2-3-3-2----------------------|
D--5-------------5------------------|
A--------------------6-5-3-0~-------|




Gtr 2: (Clean with effects)

D---------------------------------|
A---------------------------------|
F---------------------------------|
C---------------------------------|
G---------------------------------|
D-----5--7-8-7---10-8--5--7-------|
A--0------------------------------|


D------------------------------------|
A------------------------------------|
F------------------------------------|
C------------------------------------|
G------------------------------------|
D--5--7-8-8-7--5---------------------|
A------------------6-5-3-0~----------|



Heavy Part & Outro:


Gtr 1: (Distorted)

D----------------------------------|
A----------------------------------|
F-----------4-5-4---7-5-----4------|
C------7----4-5-4---7-5--7--4------|
G--2---7----2-3-2---5-3--7--2------|
D--2---5-----------------5---------|
A--0-------------------------------|


D----------------------------------|
A----------------------------------|
F-------4-5-5-4--------------------|
C--7----4-5-5-4--7-----------------|
G--7----2-3-3-2--7--8-7-5-2~-------|
D--5-------------5--8-7-5-2~-------|
A-------------------6-5-3-0~-------|




Gtr 2: (Distorted)

D---------------------------------|
A---------------------------------|
F---------------------------------|
C------7--9-10-9--12-10-7--9------|
G--2---7--9-10-9--12-10-7--9------|
D--2---5--7-8--7--10-8--5--7------|
A--0------------------------------|


D---------------------------------|
A---------------------------------|
F---------------------------------|
C--7--9-10-10-9--7----------------|
G--7--9-10-10-9--7-8-7-5-2~-------|
D--5--7-8--8--7--5-8-7-5-2~-------|
A------------------6-5-3-0~-------|


The last A5 (022) you let it ring out until Recharger comes in:



Recharger Intro -

D----------------|
A----------------|
F----------------|
C----------------|
G----------------|
D----------------|
A--222222--------|




Note Order:

A G A A# (Bb) A C A# G A

G A A# A# A G D# (Eb) D C A

B
Tap to rate this tab
# A B C D E F G H I J K L M N O P Q R S T U V W X Y Z