Song name
# A B C D E F G H I J K L M N O P Q R S T U V W X Y Z

Fear Factory - Echo Of My Scream tab

Drop C Tuning

|--------------0--------------------0--------|
|--------------------------------------------|
|--------4--------4-----------4--------4-----|
|-----2-----2--------2-----2-----2--------2--|
|--0--------------------0--------------------|
|--------------------------------------------|

|--------------------------|
|--------------------------|
|--------------------------|
|--------------------------|
|--------6-----7--6--------|
|--0--6-----6--------6--0--|

|--------------------------|
|--------------------------|
|--------------------------|
|--------------------------|
|-----6-----9--7--76-------|
|--6-----6------------6--0-|

This is my first upload, so it is not perfect, but the right direction.
Tap to rate this tab
# A B C D E F G H I J K L M N O P Q R S T U V W X Y Z