Song name
# A B C D E F G H I J K L M N O P Q R S T U V W X Y Z

Fear Factory - New Breed tab

Help us improve GuitareTab! Take a short survey!
#----------------------------------PLEASE NOTE---------------------------------#
#This file is the author's own work and represents their interpretation of the #
#song. You may only use this file for private study, scholarship, or research. #
#------------------------------------------------------------------------------#

NEW BREED
As recorded by Fear Factory
(From the 1995 Album DEMANUFACTURE)

Transcribed by jplaunty
	

Words by Burton C. Bell and Dino Cazares Music by Dino Cazares and Raymond Herrera
Arranged by Burton C. Bell, Dino Cazares, Raymond Herrera

Gtr I (B E A D F# B) - 'Untitled'
Gtr II (B E A D F# B) - 'Untitled'

   Intro/We are the New....
    Q=190
    N.C.
   4/4
    Gtr I
    E Q  E Q  E E   +E  E Q  E E E E   E Q  E Q  E E   +E  E Q  E E E E   6x
||----------------|------------------|---------------|--------------------||
||o---------------|------------------|---------------|-------------------o||
||----------------|------------------|---------------|--------------------||
||----------------|------------------|---------------|--------------------||
||o---------------|------------------|---------------|-------------------o||
||--4-3--4-3--4-3-|-(3)-4-3--3-4-5---|-4-3--4-3--4-3-|-(3)-4-3--3-4-5-----||


  N.C.
  W          W          E Q  E Q  E E   +E  E Q  E E E E
|----------|----------|---------------|------------------|
|----------|----------|---------------|------------------|
|----------|----------|---------------|------------------|
|----------|----------|---------------|------------------|
|----------|----------|---------------|------------------|
|----------|----------|-4-3--4-3--4-3-|-(3)-4-3--3-4-5---|


   Verses/We Have, We are
    $
    $$
    N.C.
    E Q  E Q  E E   +E  E Q  E E E E   E Q  E Q  E E   +E  E Q  E E E E
||----------------|------------------|---------------|--------------------||
||o---------------|------------------|---------------|-------------------o||
||----------------|------------------|---------------|--------------------||
||----------------|------------------|---------------|--------------------||
||o---------------|------------------|---------------|-------------------o||
||--4-3--4-3--4-3-|-(3)-4-3--3-4-5---|-4-3--4-3--4-3-|-(3)-4-3--3-4-5-----||


   Pre-Chorus/Born, Bred.....
                                                           D.S.
    G#5                     F#5     G#5                     B5
    Q.   Q.   Q    +E  Q.   Q  Q    Q.   Q.   Q    +E  Q.   Q  Q
||---------------|----------------|--------------|------------------||
||o--------------|----------------|--------------|-----------------o||
||---------------|----------------|--------------|------------------||
||---------------|----------4--4--|--------------|----------9--9----||
||o-6----6----6--|-(6)-6----4--4--|-6----6----6--|-(6)-6----9--9---o||
||--4----4----4--|-(4)-4----2--2--|-4----4----4--|-(4)-4----7--7----||


   Chorus/New Breed
                                                            To Coda
    C#5   G5    B5      F#5   A#5F#5  C#5   G5    B5      F#5   A#5F#5
      PM|   PM|   PM--|   PM|           PM|   PM|   PM--|   PM|
    E E E E E E E E   E E E E Q  Q    E E E E E E E E   E E E E Q  Q
||------------------|---------------|-----------------|-----------------||
||o-----------------|---------------|-----------------|----------------o||
||------------------|---------------|-----------------|-----------------||
||--6-----------4---|---------5-----|-6-----------4---|---------5-------||
||o-4-4-4-5-----2-2-|-2-4-----3--4--|-4-4-4-5-----2-2-|-2-4-----3--4---o||
||--------3-3-3-----|---2-2-2----2--|-------3-3-3-----|---2-2-2----2----||


   Interlude
    G#G  G#G  G#G       G#G  G G#A       G#G  G#G  G#G       G#G  G G#A
    Gtr II
    E Q  E Q  E E   +E  E Q  E E E E  3x E Q  E Q  E E   +E  E Q  E E E E
||----------------|-------------------||---------------|-------------------|
||o---------------|------------------o||---------------|-------------------|
||----------------|-------------------||---------------|-------------------|
||--6-5--6-5--6-5-|-(5)-6-5--5-6-7----||-6-5--6-5--6-5-|-(5)-6-5--5-6-7----|
||o---------------|------------------o||---------------|-------------------|
||--4-3--4-3--4-3-|-(3)-4-3--3-4-5----||-4-3--4-3--4-3-|-(3)-4-3--3-4-5----|
|
|   Gtr I
|   W                W                3x W                H       E E E E
||----------------|-------------------||---------------|-------------------|
||o---------------|------------------o||---------------|-------------------|
||----------------|-------------------||---------------|-------------------|
||----------------|-------------------||---------------|-------------------|
||o---------------|------------------o||---------------|-------------------|
||----------------|-------------------||---------------|----------3-4-5----|


                                                        D.S.S. al Coda
    N.C.
    Gtr I
    E Q  E Q  E E   +E  E Q  E E E E   E Q  E Q  E E   +E  E Q  E E E E
||----------------|------------------|---------------|--------------------||
||o---------------|------------------|---------------|-------------------o||
||----------------|------------------|---------------|--------------------||
||----------------|------------------|---------------|--------------------||
||o---------------|------------------|---------------|-------------------o||
||--4-3--4-3--4-3-|-(3)-4-3--3-4-5---|-4-3--4-3--4-3-|-(3)-4-3--3-4-5-----||


   Out-Chorus/New Breed
    &
    C#5   G5    B5      F#5   A#5F#5  C#5   G5    B5      F#5   N.C.
      PM|   PM|   PM--|   PM|           PM|   PM|   PM--|   PM----------|
    E E E E E E E E   E E E E Q  Q    E E E E E E E E   E E E E S S S S e E   4x
||------------------|---------------|-----------------|-----------------------||
||o-----------------|---------------|-----------------|----------------------o||
||------------------|---------------|-----------------|-----------------------||
||--6-----------4---|---------5-----|-6-----------4---|-----------------------||
||o-4-4-4-5-----2-2-|-2-4-----3--4--|-4-4-4-5-----2-2-|-2-4-----3-3-3-3-2----o||
||--------3-3-3-----|---2-2-2----2--|-------3-3-3-----|---2-2-2---------------||


   Outro
    N.C.
                                         PM--------------------------|
    E Q  E Q  E E   +E  E Q  E E E E  3x E E E E E E E E   E E S S S S q  Q
||----------------|-------------------||-----------------|--------------------*|
||o---------------|------------------o||-----------------|--------------------*|
||----------------|-------------------||-----------------|--------------------*|
||----------------|-------------------||-----------------|--------------------*|
||o---------------|------------------o||-----------------|--------------------*|
||--4-3--4-3--4-3-|-(3)-4-3--3-4-5----||-3-4-5-3-4-5-3-4-|-5-4-3-3-3-3-4------*|



Duration Legend
---------------
W - whole; H - half; Q - quarter; E - 8th; S - 16th; T - 32nd; X - 64th; a - acciaccatura
+ - note tied to previous; . - note dotted; .. - note double dotted
Uncapitalized letters represent notes that are staccato (1/2 duration)
Irregular groupings are notated above the duration line
Duration letters will always appear directly above the note/fret number it represents the
duration for.  Duration letters with no fret number below them represent rests.  Multi-
bar rests are notated in the form Wxn, where n is the number of bars to rest for.  Low
melody durations appear below the staff

Tablature Legend
----------------
 h   - hammer-on
 p   - pull-off
 b   - bend
 pb  - pre-bend
 r   - bend release (if no number after the r, then release immediately)
 /\  - slide into or out of (from/to "nowhere")
 s   - legato slide
 S   - shift slide
 - natural harmonic
[n]  - artificial harmonic
n(n) - tapped harmonic
 ~   - vibrato
 tr  - trill
 T   - tap
 TP  - trem. picking
 PM  - palm muting
\n/  - tremolo bar dip; n = amount to dip
 \n  - tremolo bar down
 n/  - tremolo bar up
/n\  - tremolo bar inverted dip
 =   - hold bend; also acts as connecting device for hammers/pulls
 <> - volume swell (louder/softer)
 x   - on rhythm slash represents muted slash
 o   - on rhythm slash represents single note slash

Misc Legend
-----------
 |  - bar
||  - double bar
||o - repeat start
o|| - repeat end
*|  - double bar (ending)
 :  - bar (freetime)
 $  - Segno
 &  - Coda
Tempo markers -  = BPM(8/16=s8/s16), where s8 = swing 8ths, s16 = swing 16ths

Related for New Breed tab