Song name
# A B C D E F G H I J K L M N O P Q R S T U V W X Y Z

Fear Factory - Escape Confusion tab

Help us improve GuitareTab! Take a short survey!
By: Luis
Mail: Puto-tuga@hotmail.com

 B|----------------|
F#|----------------|
 D|----------------|         (8x)
 A|---6-----6--5---|
 E|------7---------|
 B|----------------|

 B|----------------------------|
F#|----------------------------|
 D|----------------------------|   (4x)     
 A|----------------------------|
 E|-6--2--6-x5---5/6-6--5/6-6/5|
 B|-4--0--4-x3---3/4-4--3/4-4/3|

 B|--------------------------|
F#|--------------------------|
 D|--------------------------|    (16x)
 A|-----------------3/2-2----|
 E|--------------------------|
 B|-000000--000000-----------|

 B|--------------------|
F#|--------------------|
 D|--------------------|
 A|-4/5--4/7--4/5--4/2-|          (2x)
 E|--------------------|
 B|--------------------|

 B|----------------------------|
F#|----------------------------|
 D|----------------------------|       (4x)
 A|-5-----7-----5-----2--------|
 E|----------------------------|
 B|---000---000---000---000----|

 B|---------------------------------|
F#|---------------------------------|
 D|---------------------------------|
 A|-4/5-----4/7-----4/5-----4/2-----|      (4x)
 E|---------------------------------|
 B|-----0-0-----0-0-----0-0-----0-0-|

 B|--------------------|
F#|--------------------|
 D|--------------------|
 A|-4/5--4/7--4/5--4/2-|          (4x)
 E|--------------------|
 B|--------------------|

 B|----------------------------|
F#|----------------------------|
 D|----------------------------|       (4x)
 A|-5-----7-----5-----2--------|
 E|----------------------------|
 B|---0-0---0-0---0-0---0-0----|

 B|---------------------------------|
F#|---------------------------------|
 D|---------------------------------|
 A|-4/5-----4/7-----4/5-----4/2-----|      (4x)
 E|---------------------------------|
 B|-----0-0-----0-0-----0-0-----0-0-|

I couldn't get more... I'm so sorry... "/
Related for Escape Confusion tab