Song name
# A B C D E F G H I J K L M N O P Q R S T U V W X Y Z

Fear Factory - Human Shields tab

Tuning: B E A D F# B

Easy to song, there are some flanger-type effects in the Main Riff when played clean. 
to the song for the timing.

Main Riff (Intro/Verse/Bridge)
|-------------------------------------|
|---------3-3-3-3-3--------4-4-4-4----|
|-5-5-5-5-5-5-5-5-5------5-5-5-5-5----|     x3
|-5-5-5-5-5-5-5-5-5--6-6-6-6-6-6-6----|
|-3-3-3-3-3----------3-3-3------------|
|-------------------------------------|

|-------------------------------------|
|---------3-3-3-3-3-------------------|
|-5-5-5-5-5-5-5-5-5-------------------|     x1
|-5-5-5-5-5-5-5-5-5--------8----------|
|-3-3-3-3-3----------6-6-6-6-6-6-6----|
|--------------------4-4-4-4-4-4-4----|


Chorus ("Holding Me Like Your Shield")
|-------------------------------------|
|-------------------------------------|
|-------------------------------------|
|-8-8-8-8-8-8-8-8--6-6-6-6-6-6-6-6----|
|-8-8-8-8-8-8-8-8--6-6-6-6-6-6-6-6----|
|-6-6-6-6-6-6-6-6--4-4-4-4-4-4-4-4----|


Outro
|-------------------------------------|
|-------------------------------------|
|-------------------------------------|
|-8~-------6~--------3~---------------|
|-8~-------6~--------3~---------------|
|-6~-------4~--------1~---------------|


email corrections to concert_junkie@hotmail.com
thanks for listening to great music!
Tap to rate this tab
# A B C D E F G H I J K L M N O P Q R S T U V W X Y Z