Song name
# A B C D E F G H I J K L M N O P Q R S T U V W X Y Z

Fear Factory - Transgression tab

Band:  Fear Factory
Album: Transgression
Song:  Transgression

.  - palm mute           /  - slide up to
\  - slide down to       ~  - vibrato
h  - hammer on           b  - Bend
p  - pull off            Suffixes for bend
t  - tap                 f  - full bend    h - half bend
ph - pinched harmonic    q  - quarter bend t - tap bend
*  - see comment         ^  - Hold bend    r release bend
x  - Stuccatto           ~  - vibrato bend
,  - slight palm mute    () - ghost note, sustained note
"  - tremolo note        <> - Trill

Tuning: 7-String Guitar (A D G C F A D)

Transgression features a lot of triplets and you'll requires good technique
and precision to get this sounding right. Corrections are welcome though I'm
fairly certain this is mostly accurate. Enjoy :)


Intro

|-------------------------------------------------------------------|
|-------------------------------------------------------------------|
|-------------------------------------------------------------------|
|-------------------------------------------------------------------|
|-------------------------------------------------------------------|
|-------------------------------------------------------------------|
|-3000600030005000--------------------------------------------------|
  ................

Riff A (Play 4x)

|-------------------------------------------------------------------|
|-------------------------------------------------------------------|
|-------------------------------------------------------------------|
|-------------------------------------------------------------------|
|-------9-----------------------------------------------------------|
|-7-----------------------7799101099--------------------------------|
|---000---000-0-000-0-000-------------------------------------------|
    ...   ... . ... . ... ..... . ..

|-------------------------------------------------------------------|
|-------------------------------------------------------------------|
|-------------------------------------------------------------------|
|-------------------------------------------------------------------|
|-------8-----------------------------------------------------------|
|-7-----------------------7799101099--------------------------------|
|---000---000-0-000-0-000-------------------------------------------|
    ...   ... . ... . ... ..... . ..

|-------------------------------------------------------------------|
|-------------------------------------------------------------------|
|-------------------------------------------------------------------|
|-------------------------------------------------------------------|
|------10-----------------------------------------------------------|
|-7-----------------------7799101099--------------------------------|
|---000---000-0-000-0-000-------------------------------------------|
    ...   ... . ... . ... ..... . ..

|-------------------------------------------------------------------|
|-------------------------------------------------------------------|
|-------------------------------------------------------------------|
|-------------------------------------------------------------------|
|-------9-----------8-----------------------------------------------|
|-7-----------7-----------101099101099------------------------------|
|---000---000---000---000-------------------------------------------|
    ...   ...   ...   ... . . ... . ..


Riff B1 <-Listen to CD carefully, tricky rhythms in the verse here)

|-------------------------------------------------------------------|
|-------------------------------------------------------------------|
|-------------------------------------------------------------------|
|-------------------------------------------------------------------|
|-------------------------------------------------------------------|
|-------------------------------------------------8-7-5-7-----------|
|-530080007-5300706-3355330011-53008007-5300706-x-6-5-3-5-----------|
  ......... ....... .......... ........ .......

Riff B2

|-------------------------------------------------------------------|
|-------------------------------------------------------------------|
|-------------------------------------------------------------------|
|-------------------------------------------------------------------|
|------------------------------------------------10/9-9/7-----------|
|-------------------------------------------------8/7-7/5-----------|
|-530080007-5300706-3355330011-53008007-5300706-x-------------------|
  ......... ....... .......... ........ .......

Repeat Once

Riff A  (2x)
Riff B1 (1x)

Riff B3

|-------------------------------------------------------------------|
|-------------------------------------------------------------------|
|-------------------------------------------------------------------|
|-------------------------------------------------------------------|
|------------------------------------------------10-9-9-7-9-7-7-5---|
|-------------------------------------------------8-7-7-5-7-5-5-3---|
|-530080007-5300706-3355330011-53008007-5300706-x-------------------|
  ......... ....... .......... ........ .......

Riff C (Play twice)

|---------0-------------0-------------0-----------------------------|
|---------0-------------0-------------0-----------------------------|
|-------------------------------------------------------------------|
|-------------------------------------------------------------------|
|-3-3-3-3---3-3-3-3-3-3---3-3-3-3-3-3---3-3-3-3-3-3-----------------|
|-3-3-3-3---3-3-3-3-3-3---3-3-3-3-3-3---3-3-3-3-3-3-----------------|
|-1-1-1-1---1-1-1-1-1-1---1-1-1-1-1-1---1-1-1-1-1-1-x-3b------------|



|---------0-------------0-------------0-----------------------------|
|---------0-------------0-------------0-----------------------------|
|-------------------------------------------------------------------|
|-2-2-2-2---2-2-2-2-2-2---2-2-2-2-2-2---2-2-2-2-2-2-----------------|
|-2-2-2-2---2-2-2-2-2-2---2-2-2-2-2-2---2-2-2-2-2-2-----------------|
|-0-0-0-0---0-0-0-0-0-0---0-0-0-0-0-0---0-0-0-0-0-0-x---------------|
|-----------------------------------------------------3b------------|


Riff D ("I...am...your...ENEMY!")

|-------------------------------------------------------------------|
|-------------------------------------------------------------------|
|-------------------------------------------------------------------|
|-3-3-3-3-3-3-3-3-3/5-5-5-5-5-5-5-5/7-7-7-7-7-7-7-7/10101010101010--|
|-------------------------------------------------------------------|
|-1-1-1-1-1-1-1-1-1/3-3-3-3-3-3-3-3/5-5-5-5-5-5-5-5/8-8-8-8-8-8-8---|
|-------------------------------------------------------------------|

Riff A (2x)
Riff B1
Riff B2
Riff B1
Riff B3
Riff C (2x)
Riff D (1x)


Riff E

|---------0-------------0-------------0-----------------------------|
|---------0-------------0-------------0-----------------------------|
|-------------------------------------------------------------------|
|-2-2-2-2---2-2-2-2-2-2---------------------------------------------|
|-2-2-2-2---2-2-2-2-2-2---2-2-2-2-2-2---2-2-2-2-2-2-2-2-------------|
|-0-0-0-0---0-0-0-0-0-0---0-0-0-0-0-0---0-0-0-0-0-0-0-0-------------|
|-------------------------------------------------------3~----------|
                                                      .

Riff D (1x)
Riff E (4x)

End Section

|---------0-------------0-------------0-----------------------------|
|---------0-------------0-------------0-----------------------------|
|-------------------------------------------------------------------|
|-2-2-2-2---2-2-2-2-2-2---------------------------------------------|
|-2-2-2-2---2-2-2-2-2-2---2-2-2-2-2-2---2-2-2-2-2-2-2---------------|
|-0-0-0-0---0-0-0-0-0-0---0-0-0-0-0-0---0-0-0-0-0-0-0---------------|
|-------------------------------------------------------------------|


|-------------------------------------------------------------------|
|-------------------------------------------------------------------|
|-------------------------------------------------------------------|
|-------------------------------------------------------------------|
|-----------------------------9-----------8--------------2----------|
|-----------------------7-----------7--------------------2----------|
|-5-3~-5-3~-5-3~-5-3~-----000---000---000---000-60003000-0----------|END
  .    .    .    .        ...   ...   ...   ... ........
Tap to rate this tab
# A B C D E F G H I J K L M N O P Q R S T U V W X Y Z