Song name
# A B C D E F G H I J K L M N O P Q R S T U V W X Y Z

Fear The Clown - Alone Again tab

Song:   Alone Again
Artist: Fear the Clown
tabber: Kenny Burgess
Email:  Fat105@aol.com


d------------------------------------------
A------------------------------------------
F------------------------------------------
C--------------------------------5-5-5-4-4-
G-1-333-1-3-1-333-1-3-1-333-1-3--3-3-3-2-2-
C-1-333-1-3-1-333-1-3-1-333-1-3------------


end verse...STRUMS NOT INCLUDED
d--------
A--------
F-5---3--
C-5---3--
G-3---1--
C--------


bride (thinking about that time...)
d----------------
A----------------
F----------------
C----------------
G-11-13-3-1-3-1--
C-11-13-3-1-3-1--
Tap to rate this tab
# A B C D E F G H I J K L M N O P Q R S T U V W X Y Z