Song name
# A B C D E F G H I J K L M N O P Q R S T U V W X Y Z

Fear The Clown - Ice Boat tab

song:   Ice boat
artist: Fear the Clown
tabber: Kenny Burgess
Email:  Fat105@aol.com

please email me and tell me what u think or comment on this tab.
Everything i put is 110% accurate.


intro w/effects
d----------------------
A----------------------
f----------------------
G----------------------
C-1-3-1-3-1--4--4-4-3--
G----------------------
C----------------------

d----------------------
A----------------------
f----------------------
G----------------------
C----------------------
G-1-3-1-3-1--4--4-4-3--
C-1-3-1-3-1--4--4-4-3--


verse w/whammy effect
d----------------------
A----------------------
f----------------------
G----------------------
C-1--------------------
G----------------------
C----------------------
 P.M
Tap to rate this tab
# A B C D E F G H I J K L M N O P Q R S T U V W X Y Z