Song name
# A B C D E F G H I J K L M N O P Q R S T U V W X Y Z

Fear The Clown - Red Snow tab

song:   Red Snow
artist: Fear the Clown
tabber: Kenny Burgess
Email:  Fat105@aol.com

please email me and tell me what u think
or comment on this tab. This tab has EXACT
strums and is perfect! Too bad FTC broke up.
Now, this first riff was either stolen or written
without noticing, but this is the Bawitdaba chorus riff
from Kid rock which was written is standard tuning.



d-------------------------------------|
A-------------------------------------|
f-------------------------------------|
G-------------------------------------|
C-------------------------------------|
G--4-4-x-7--4-4-x-7--4-4-x-7--4-5555--|
C--4-4-x-7--4-4-x-7--4-4-x-7--4-5555--|
                                 repeat

 "stand tall!!"
d-------------------------------|
A-------------------------------|
F-------------------------------|
C-------------------------------|
G--4-4-2-4-2-4-2-4-4-2-4-5-5-5--|
C--4-4-2-4-2-4-2-4-4-2-4-5-5-5--|
                         repeat

d--------------|
A--------------|
F--------------|
C--------------|
G-3-xxx-3-3-3--|
C-3-xxx-3-3-3--|  theres a harmonic that i cant figure out
          repeat

verse
d---------------------------|
A---------------------------|
F---------------------------|
C---------------------------|
G--3-3-3-3-1-1-4-4-4-4-1-1--|
C--3-3-3-3-1-1-4-4-4-4-1-1--|
                            repeat
Tap to rate this tab
 
# A B C D E F G H I J K L M N O P Q R S T U V W X Y Z