Song name
# A B C D E F G H I J K L M N O P Q R S T U V W X Y Z

Fear - More Beer tab

This is my first tab so hopfully you guys like it :)

e-----------------------------------|
B-----------------------------------|
G--9-9-9-9-9-9-9-9-9--7----7--------|
D--9-9-9-9-9-9-9-9-9--7-7--7-7------|
A--7-7-7-7-7-7-7-7-7--5-7--5-7------|
E-----------------------5----5------|
                  More Beer More Beer

e-----------------------------------|
B-----------------------------------|
G--9-9-9-9-9-9-9-9-9--7-----8-9-----|
D--9-9-9-9-9-9-9-9-9--7-7-8-8-9-9---|
A--7-7-7-7-7-7-7-7-7--5-7-8-6-7-9---|
E-----------------------5-6-----7---|

   All I want is more beer more beer
Tap to rate this tab
 
# A B C D E F G H I J K L M N O P Q R S T U V W X Y Z