Song name
# A B C D E F G H I J K L M N O P Q R S T U V W X Y Z

Feared - Randall Satan tab

Here is the solo for "Randall Satan". 
If you've listened to Ola Englund's song then 
I'm sure you love the solo. With lots of 
listening, I finally got it around.

Tuning: New standard tuning (CGDAEG)

**NOTE: It can be played with regular standard tuning (EADGBE) but it will sound slightly strange.

C-----------------------------------9--10--12-10-9--------------------------|
G-----12---------10---------------------------------11-10-8-10-11-10-8------|
D-----15b--------13b-----13-------------------------------------------------|
A---------------------------------------------------------------------------|
E---------------------------------------------------------------------------|
G---------------------------------------------------------------------------|

                    |--->>>
                    |Legato
C---------------------------------------------------------------------------|
G---------------------------------------------------------------------------|
D-----9-7-6-7-9-7-6---------------------------------------------------------|
A-------------------8-7-5-7-8-7-5-------------------------------------------|
E---------------------------------7-5-4-5-7-5-4-----------------------------|
G-----------------------------------------------6-5-3-5-6-5-3-5-6-----------|



C---------------------------------------------------------------------------|
G---------------------------------------------------------------------------|
D-------------------------------------------6-7-9-7-6/7-9-10-9-7-9-10-------|
A-----------------------------5-7-8-7-5-7-8---------------------------------|
E-----4-5-7-5-4/5-7-8-7-5-7-8-----------------------------------------------|
G---------------------------------------------------------------------------|



C------------------------9-10-12-10-9/10-12-12b13----h15p13r12--------------|
G-----8-10-11-10-8-10-11----------------------------------------------------|
D---------------------------------------------------------------------------|
A---------------------------------------------------------------------------|
E---------------------------------------------------------------------------|
G---------------------------------------------------------------------------|

      |---->>>
      |Alt. picking
C-----10---12---12-13-12-10-----12-13-12-10-------12-13-12-10---------------|
G--------------------------12-10-------------12-10-----------12-10-9v-------|
D---------------------------------------------------------------------------|
A---------------------------------------------------------------------------|
E---------------------------------------------------------------------------|
G---------------------------------------------------------------------------|

\m/
Tap to rate this tab
# A B C D E F G H I J K L M N O P Q R S T U V W X Y Z