Song name
# A B C D E F G H I J K L M N O P Q R S T U V W X Y Z

Fearless Vampire Killers - Palce In Flames tab

only half of the tabs for emma-
e----------------------------------------------------------------------|
B----------------------------------------------------------------------|
G----------------------------------------------------------------------|
D--8----10----11-----6----4--------------------------------------------|
A--8----10----11-----6----4---6--4-3-----------------------------------|
E--6----8-----9------4----2--------------------------------------------|

e-------------------------------------------------------------------------|
B-------------------------------------------------------------------------|
G--3----------------------------------------------------------------------|
D--3----------------------------------------------------------------------|
A--1----------------------------------------------------------------------|
E----xxxx-----------------------------------------------------------------|

e------8--9--8----------8--9---8---------9----------------------------|
B--------------8-8--6------------8---10----8--10--10/11/10------------|
                                                        slide thingy
G------------------------------------------------------------------------|
D------------------------------------------------------------------------|
A------------------------------------------------------------------------|
E------------------------------------------------------------------------|

e---------------------------------------------------------------------------|
B---------------------------------------------------------------------------|
G---------------6---4---3---------------------------------------------------|
D----4----6-----6---4---3-----4----6----------------------------------------|
A----4----6-----4---2---1-----4----6----------------------------------------|
E----2----4-------------------2----4----------------------------------------|

e-------------------------------------------------------------------------|
B-------------------------------------------------------------------------|
G--3----------------------------------------------------------------------|
D--3----------------------------------------------------------------------|
A--1----------------------------------------------------------------------|
E----xxxx-----------------------------------------------------------------|

yeah and cba to say how many times you do them so work it out your self X Izzy Davies :3
Tap to rate this tab
# A B C D E F G H I J K L M N O P Q R S T U V W X Y Z