Song name
# A B C D E F G H I J K L M N O P Q R S T U V W X Y Z

Fedde Le Grand - Let Me Think About It tab

IDA CORR (FEDDE LE GRAND REMIX)
LET ME THINK ABOUT IT!!
USE ANY TUNING

INTRO
|--------------------------------------------|
|---3-3--33-3-333--1-------------------------| (x9 Before the next)
|--------------------------------------------|
|--------------------------------------------|
|--------------------------------------------|
|--------------------------------------------|

 
And With another Guitar Play This
|-------------------------------------------------------------------|***
|-------------------------------------------------------------------|
|-------------------------------------------------------------------|
|-------------------------------------------------------------------|
|--10--9--8--7---9-8-7---6--5--4-(LET RING)-------------------------|
|--8---7--6--5---7-6-5---4--3--2-(LET RING)-------------------------|


Chorus (Without Vocals First 4 Times) Then "Let Me Think About It" (8 Times)

|------------------------------------------------------------------|
|------------------------------------------------------------------|
|------------------------------------------------------------------|
|----5-5-----------------5-5---------------------------------------|
|----5-5------88888------5-5-------8~8~8~--------------------------|
|----5-5-----------------5-5---------------------------------------|

Bridge

|---------------------------------------------------------------|
|---------------------------------------------------------------|
|--88-88--6--4--------------------------------------------------| x8
|---------------7-----------------------------------------------|
|---------------------------------------------------------------|
|---------------------------------------------------------------|
(It sound like, but come on you can do it better than me)

(then in the song sound 
"Come on girl believe me
Iíll make you see
That I am the true way
Towards ecstasy")  If you want.. play the chorus (without 8)

Chorus* (x4)
Bridge* (x8)
Intro* (x3) (THE Guitar II.. Plays only this: ***)
Chorus* (x4)
Bridge* (x8)

Disafinate Part (3:23, and 3:26
|----8-8--------------------8-8-----------------------------------|
|----5-5--------------------5-8-----------------------------------|
|----6-6--------------------6-6-----------------------------------|
|----5-5--------------------5-5-----------------------------------|
|----5-5------8~8~8~--------5-5-------88888-----------------------|
|----5-5--------------------5-5-----------------------------------|


|-----------------------------------------------------------|
|-----------------------------------------------------------|
|-----------------------------------------------------------|
|------------------------5-5--------------------------------|
|----------8~8~8~--------5-5-------88888--------------------|
|------------------------5-5--------------------------------|

Then Just Play

|---------------------------------------------|
|---------------------------------------------|
|---------------------------------------------| 
|----------5-5--------------------------------|
|----------5-5--------------------------------|
|----------5-5--------------------------------|

 To Minute 3:48.. 

 Bridge (x8)
(In the 7 and 8 Part of the Bridge, the Disafinate Part)(Only Once)

 Chorus*(To Finish)


 Ending With This One (Again)
|---------------------------------------------|
|---------------------------------------------|
|---------------------------------------------| 
|----------5-5--------------------------------|
|----------5-5--------------------------------|
|----------5-5--------------------------------|


 Note: Listen the song, for that s#°t of Times and everything.
I Hope you have fun with this tab, 
if you think that it's too bad, or wrong, let me know, You're better than me!... 
let me know anything from my FIRS TAB! come on, be pacient, is my first work.
 For any suggestion:
gonza_madrid57@hotmail.com


Tap to rate this tab
# A B C D E F G H I J K L M N O P Q R S T U V W X Y Z