Song name
# A B C D E F G H I J K L M N O P Q R S T U V W X Y Z

Federico Baltimore - The 12th String tab

This is my first attempt on making a tab but it sounds right.
OBS! This is the song with lyrics(the one you'll find on youtube)

     E E E E E E E E      E E E E  E E E E      E E E E E E E E
e|---------------------|---------------------|----------20--------|
B|-------16------15----|------15-------15----|------16------16----|
G|---------------------|----15--15---17--17--|--------------------|
D|-----17--17--17--17--|--13------15---------|----17--17--17--17--|
A|---15------15--------|---------------------|--15----------------|
E|---------------------|---------------------|--------------------|
    E E E E E E E E
e|--------------------|
B|------15------17----|
G|----15--15--17--17--|
D|--13------15--------|
A|--------------------|
E|--------------------|

Repeat as the song goes on. There is a pause at 1:25-1:46. The guitar stops at 2:50, that's it
Tap to rate this tab
 
# A B C D E F G H I J K L M N O P Q R S T U V W X Y Z