Song name
# A B C D E F G H I J K L M N O P Q R S T U V W X Y Z

Federico Poggipollini - Il Chitarrista tab

Il Chitarrista - Federico Poggipollini
----------------------------------------------------------------------------

Tabbed by: Rainboworiginal
Email: andrea.vox@hotmail.it

Tuning: D (one step down)

You have to play the song with a Fender Stratocaster and high gain.

| /  slide up
| \  slide down
| b  bending
| h  hammer-on
| p  pull-off
| ~  vibrato
| +  harmonic
| x  Mute note

Let's start:


Signore e stata una svista

abbi un occhio di riguardo per il tuo chitarrista


d|-------------------------------------------------------------------------|
A|-5--5--3---3----5b7-5--5-3-5~--------------------------------------------|
F|---------4---4----------------4-2-4--------------------------------------|
C|------------------------------------2-0----------2------4---- 2----------|
G|----------------------------------------2-0------2--x-x-4-x-x-2----------|
D|--------------------------------------------3b-0-------------------------|


E7
Signore se lanci uno strale

sbaglia mira per favore non farmi del male


d|-------------------------------------------------------------------------|
A|-5--5--3---3----5b7-5--5-3-5~--------------------------------------------|
F|---------4---4----------------4-2-4--------------------------------------|
C|------------------------------------2-0----------2------4---- 2----------|
G|----------------------------------------2-0------2--x-x-4-x-x-2----------|
D|--------------------------------------------3b-0-------------------------|


F7
Te lo giuro in ginocchio  qui in mezzo  alla pista 

Te lo giuro sulla Fender io non l'ho fatto apposta


d|-------------------------------------------------------------------------|
A|-7--7--5---5----7b9-7--7-5-7---------------------------------------------|
F|---------6---6----------------6-4-6--------------------------------------|
C|-------------------------------------4-2----------4------6-----4---------|
G|-----------------------------------------4-2------4--x-x-6-x-x-4---------|
D|---------------------------------------------5b-2------------------------|


F7  E7
percio


Signore e stata una svista

abbi un occhio di riguardo per il tuo chitarrista


d|-------------------------------------------------------------------------|
A|-7--7--5---5----7b9-7--7-5-7---------------------------------------------|
F|---------6---6----------------6-4-6--------------------------------------|
C|-------------------------------------4-2---------------------------------|
G|-----------------------------------------4-2-----------------------------|
D|---------------------------------------------5b-2------------------------|


E           E E7
Non so com'e ma e accaduto

E E7
Lui e entrato nel bar con lei e si č seduto

E        E E7
Io ero li affascinato


F
La sua carica sessuale si spandeva nel locale

F
Ed io     

E E7
di desiderio stavo male


E E7
Cosi mi sono avvicinato 

E a giocare a poker  l'ho invitato

Avevo un full e lui due coppie


F
Cosa rilanci se non hai pių niente tranne lei

E7
Se perdo tu l'avrai


Signore e stata una svista

abbi un occhio di riguardo per il tuo chitarrista


d|-------------------------------------------------------------------------|
A|-7--7--5---5----7b9-7--7-5-7---------------------------------------------|
F|---------6---6----------------6-4-6--------------------------------------|
C|-------------------------------------4-2---------------------------------|
G|-----------------------------------------4-2-----------------------------|
D|---------------------------------------------5b-2------------------------|


Solo

E7      A


E7
Signore e stata una svista

abbi un occhio di riguardo per il tuo chitarrista


E E7
e le sue corde hanno vibrato

in una notte io quel sogno l'ho bruciato


          E
mentre dormivo son scappato


F
con le gambe intorpiditele scarpe  ancora slacciate

F
con le gambe intorpiditele scarpe  ancora slacciate



con il mio mazzo di carte truccate


d|-------------------------------------------------------------------------|
A|-7--7--5---5----7b9-7--7-5-7---------------------------------------------|
F|---------6---6----------------6-4-6--------------------------------------|
C|-------------------------------------4-2---------------------------------|
G|-----------------------------------------4-2-----------------------------|
D|---------------------------------------------5b-2------------------------|


d|-------------------------------------------------------------------------|
A|-5--5--3---3----5b7-5--5-3-5~--------------------------------------------|
F|---------4---4----------------4-2-4--------------------------------------|
C|------------------------------------2-0----------2------4---- 2----------|
G|----------------------------------------2-0------2--x-x-4-x-x-2----------|
D|--------------------------------------------3b-0-------------------------|


Federico poggipollini is an italian (famous) guitarist

http://it.wikipedia.org/wiki/Federico_Poggipollini
http://www.myspace.com/fedepoggipolliniofficial

The song: http://www.youtube.com/watch?v=1SZr61wO2xg

============================================================================
Tap to rate this tab
 
# A B C D E F G H I J K L M N O P Q R S T U V W X Y Z