Song name
# A B C D E F G H I J K L M N O P Q R S T U V W X Y Z

Feed Her To The Sharks - Digital Breakdown tab

tuning: drop C

i only heard it and tried to play it 
so maybe there could be some mistakes.....
enjoy

Breakdown I
|----------------------------------------------------------------|
|----------------------------------------------------------------|
|----------------------------------------------------------------|
|-0--00-----0-0--00-----00000-0--00-----0-0--00-----00000-0--00--|
|-0--00-----0-0--00-----00000-0--00-----0-0--00-----00000-0--00--|
|-0--000----0-0--000----00000-0--000----0-0--000----00000-0--000-|
  *  **     * *  **     ***** *  **     * *  **     ***** *  **

|-----------------------------------------------|
|-----------------------------------------------|
|-----------------------------------------------|
|-0-0--00-----00000-0--00-----0-0--00-----00000-|
|-0-0--00-----00000-0--00-----0-0--00-----00000-|
|-0-0--000----00000-0--000----0-0--000----00000-|
  * *  **     ***** *  **     * *  **     *****

Bridge
|------6-|
|-10-10--|
|---7----|
|--------|
|--------|
|--------| 4x

Breakdown II
|----------------------------------------------------------------|
|----------------------------------------------------------------|
|----------------------------------------------------------------|
|-0--00-----0-0--00-----00000-0--00-----0-0--00-----00000-3--33--|
|-0--00-----0-0--00-----00000-0--00-----0-0--00-----00000-3--33--|
|-0--000----0-0--000----00000-0--000----0-0--000----00000-3--333-|
  *  **     * *  **     ***** *  **     * *  **     ***** *  **

|------------------------------------------------|
|------------------------------------------------|
|------------------------------------------------|
|-3-3--33-----33333-5--55-----5-5--55-----7p5----|
|-3-3--33-----33333-5--55-----5-5--55--------8p7-|
|-3-3--333----33333-5--555----5-5--555--00-------| 2x
  * *  **     ***** *  **     * *  **   **

|---|
|---|
|---|
|-0~|
|-0~|
|-0~|

Song:
http://www.youtube.com/watch?v=TTInsXephXE

Myspace:
http://www.myspace.com/feedhertothesharks
Tap to rate this tab
 
# A B C D E F G H I J K L M N O P Q R S T U V W X Y Z