Song name
# A B C D E F G H I J K L M N O P Q R S T U V W X Y Z

Feed Me To The Forest - Whippersnappers tab

"Whippersnappers" by Feed Me to the Forest. Track 3 on their album "I'm Not a Zoologist". Enjoy!
any q's my email is Linkoot@live.com

www.myspace.com/feedmetotheforest

Tuning = Drop B
Slide = /
Bend = B
Pull off =P
Natural Harmonic = *
Palm Mute = .


C#|---------------------------7-6-5-----------8b9-xx-8b9-xx-8b9-xx-8b9----|
G#|-------------------5-5-5-5-------7-6-5-----8b9-xx-8b9-xx-8b9-xx-8b9----|
E |-------------------3-3-3-3-------------6p0-8b9-xx-8b9-xx-8b9-xx-8b9----|X2
B |-------------------4-4-4-4---------------------------------------------|
F#|----------3-4-5-0------------------------------------------------------|
B |--0-3-4-5--------------------------------------------------------------|


C#|-------------------------------------8b9-xx-8b9-xx-8b9-xx-8b9------|
G#|-5-xx-9-xx-5-5-xx-9-xx-5-5-xx-9-xx-5-8b9-xx-8b9-xx-8b9-xx-8b9------|
E |-3-xx-7-xx-3-3-xx-7-xx-3-3-xx-7-xx-3-8b9-xx-8b9-xx-8b9-xx-8b9------|X2
B |-4-xx-8-xx-4-4-xx-8-xx-4-4-xx-8-xx-4-------------------------------|
F#|-------------------------------------------------------------------|
B |-------------------------------------------------------------------|


C#|---8b9-----------3b4-------------8b9-----------3b4-----------------|
G#|---8b9-----------3b4-------------8b9-----------3b4-----------------|
E |---8b9-----------3b4-------------8b9-----------3b4-----------------|
B |-------------------------------------------------------------------|
F#|---------------------4-----------------------------4---------------|
B |-3-----2-2-2-2-3-------2-2-2-2-3-----2-2-2-2-3-------2-2-2-2-------|


C#|-------------------------------------------------------------------|
G#|-------------------------------------------------------------------|
E |-------------------------------------------------------------------|
B |-------------------------------------------------------------------|
F#|---7-6-----7-6-----7-6---3-0-3-0-3-0-3-0---7/3\7/3-----7/3\7/3-----|
B |-2-----2-2-----2-2-----2-----------------2---------2-2-------------|


C#|-----------------5*-Bend with neck---------------|
G#|-----------------5*-Bend-with neck---------------|
E |-----------------5*-Bend with neck---------------|
B |-------------------------------------------------|
F#|-----7/3\7/3\7/3---------------------------------|
B |-2-2---------------------------------------------|


C#|--------------------------------------------|
G#|--------------------------------------------|
E |--------------------------------------------|
B |-2-7-6-3-2--7-6-2-2--7-6-3---2-----2-----2--|
F#|-2-7-6-3-2--7-6-2-2--7-6-3-----1-----1------|
B |-2-7-6-3-2--7-6-2-2--7-6-3-0-----0-----0----|
                              .     .     .

C#|-----------------------------8b9-xxxx-12b13-xx-6b7-----|
G#|-----------------------------8b9-xxxx-12b13-xx-6b7-----|
E |-----------------------------8b9-xxxx-12b13-xx-6b7-----|
B |-2-7-6-3-2--7-6-2-2--7-6-3-----------------------------|
F#|-2-7-6-3-2--7-6-2-2--7-6-3-----------------------------|
B |-2-7-6-3-2--7-6-2-2--7-6-3-0---------------------------|
                              .    

C#|--------------------------------------------|
G#|--------------------------------------------|
E |--------------------------------------------|
B |-2-7-6-3-2--7-6-2-2--7-6-3---2-----2-----2--|
F#|-2-7-6-3-2--7-6-2-2--7-6-3-----1-----1------|
B |-2-7-6-3-2--7-6-2-2--7-6-3-0-----0-----0----|
                              .     .     .                        

C#|-x-x-x-x--x-x--x-x-x-x--x-x-----|
G#|-x-x-x-x--x-x--x-x-x-x--x-x-----|
E |-x-x-x-x--x-x--x-x-x-x--x-x-----|
B |-x-x-x-x--x-x--x-x-x-x--x-x-----|
F#|-x-x-x-x--x-x--x-x-x-x--x-x-----|
B |-x-x-x-x--x-x--x-x-x-x--x-x-----|

C#|----------------------------------------------5-5-5-5-5-5-5-5---|
G#|----------------------------------------------5-5-5-5-5-5-5-5---|
E |-------5/9\5------5---5/9\5----------5/9\5----5-5-5-5-5-5-5-5---|
B |-7-5-7-------7--7---7-------7--7-5-7-------7--7-7-7-7-7-7-7-7---|
F#|----------------------------------------------------------------|
B |----------------------------------------------------------------|

C#|-------------------------------------------------5-5-5-5-5-5-5-5---|
G#|-------5---------------5/9\5------------5--------5-5-5-5-5-5-5-5---|
E |-7-5-7---7-5-----7-5-7-------7-5--7-5-7---7-5----5-5-5-5-5-5-5-5---|
B |-------------7-5------------------------------7--7-7-7-7-7-7-7-7---|
F#|-------------------------------------------------------------------|
B |-------------------------------------------------------------------|

C#|--------------------------------------------------------------------|
G#|--------------------------------------------------------------------|
E |--9//-7-5-7-5-7--9//-7-5-7-5-7--9//-7-5-7-5-7--9--9--9--9--9--9--9--|
B |-10//-7-5-7-5-7-10//-7-5-7-5-7-10//-7-5-7-5-7-10-10-10-10-10-10-10--|
F#|--------------------------------------------------------------------|
B |--------------------------------------------------------------------|

C#|-3---------3---3---------3---3---------3----------------------------|
G#|-6b8-5-3-5---5-6b8-5-3-5---5-6b8-5-3-5---5--------------------------|
E |--------------------------------------------9--9--9--9--9--9--9-----|
B |-------------------------------------------10-10-10-10-10-10-10-----|
F#|--------------------------------------------------------------------|
B |--------------------------------------------------------------------|

C#|-------------------------------------------------------------------|
G#|-------------------------------------------------------------------|
E |-9///------------9///------------9///-----------3-3-3-3-3-3p0------|
B |-8///---2-2-3-4--8///---2-2-3-4--8///---2-2-3-4--------------------|
F#|-7///---2-2-3-4--7///---2-2-3-4--7///---2-2-3-4--------------------|
B |--------2-2-3-4---------2-2-3-4---------2-2-3-4--------------------|

C#|----------------------------------------------------Space-Sound----|
G#|----------------------------------------------------Space-Sound----|
E |-9///------------9///------------9///---------------Space-Sound----|
B |-8///---2-2-3-4--8///---2-2-3-4--8///---2-2-3-4-----Space Sound----|
F#|-7///---2-2-3-4--7///---2-2-3-4--7///---2-2-3-4-----Space Sound----|
B |--------2-2-3-4---------2-2-3-4---------2-2-3-4-----Space Sound----|

C#|-------------------------------------------------------------------|
G#|-------------------------------------------------------------------|
E |-------------------------------------------------------------------|
B |-2--10-9-8-5-2--10-9-8-5-2--10-9-8-5-------------------------------|
F#|-2--10-9-8-5-2--10-9-8-5-2--10-9-8-5-------------------------------|
B |-2--10-9-8-5-2--10-9-8-5-2--10-9-8-5--0-2b3-0-2b3------------------|

C#|-----------------------------------------------|
G#|-----------------------------------------------|
E |-----------------------------------------------|
B |-2--10-9-8-5-2--10-9-8-5-2--10-9-8-5-2---------|
F#|-2--10-9-8-5-2--10-9-8-5-2--10-9-8-5-2---------|
B |-2--10-9-8-5-2--10-9-8-5-2--10-9-8-5-2---------|

Tap to rate this tab
 
# A B C D E F G H I J K L M N O P Q R S T U V W X Y Z