Song name
# A B C D E F G H I J K L M N O P Q R S T U V W X Y Z

Feed Me - Blood Red tab

Main Melody:

e|---------------------------------------------------------------|
B|---10----------10----13-12-10-12-10----------------------------|
G|-9----12-11-12----------------------12-11----------------------|
D|-------------------12------------------------------------------|
A|---------------------------------------------------------------|
E|---------------------------------------------------------------|

e|-----------------------12-10-----------------------------------|
B|---12-10-------10-12---------13-12-13-12-----------------------|
G|-9-------11-12-------9-------------------12--------------------|
D|---------------------------------------------------------------|
A|---------------------------------------------------------------|
E|---------------------------------------------------------------|
Tap to rate this tab
# A B C D E F G H I J K L M N O P Q R S T U V W X Y Z