Song name
# A B C D E F G H I J K L M N O P Q R S T U V W X Y Z

Feed The Rhino - Razor tab

Razor by Feed the Rhino.

Drop C tuning, clean guitar for the whole song except the solo.

Intro:

D|---------------------------------------------------------|
A|---------------------------------------------------------|
F|---------2------------2------------2------------2--------|
C|-----4------------3------------4------------3------------|
G|---------------------------------------------------------|
C|-4-----4---4--3-----3---3--4-----4---4--3-----3---3------| 

D|---------------------------------------------------------|
A|---------------------------------------------------------|
F|---------2-----------------------------------------------|
C|-----0-----------2---------3-----------------------------|
G|---------------------------------------------------------|
C|-0-----0---0--2----2----3----3---------------------------|

D|---------------------------------------------------------|
A|-----------------------0---------------------------------|
F|---------2-----------1-----------------------------------|
C|-----4-------------3-------------------------------------|
G|----------------/4---------------------------------------|
C|-4-----4---4---------------------------------------------|

That's played three times, but on the last time that last line is ditched for:

D|---------------------------------------------------------|
A|---------------------------------------------------------|
F|---------------------------------------------------------|
C|-4-4-4-4-4-4-4-4-4-4-4-4---------------------------------|
G|-x-x-x-x-x-x-x-x-x-x-x-x---------------------------------|
C|-4-4-4-4-4-4-4-4-4-4-4-4---------------------------------|

And that rolls into the chorus:

D|---------------------------------------------------------|
A|---------------------------------------------------------|
F|---------------------------------------------------------|
C|-7---7-7--7---7-7---3---3-3--3--3-3----------------------|
G|-x---x-x--x---x-x---x---x-x--x--x-x----------------------|
C|-7---7-7--7---7-7---3---3-3--3--3-3----------------------| x2

D|---------------------------------------------------------|
A|---------------------------------------------------------|
F|---------------------------------------------------------|
C|-0---0-0--0---0-0--2---2-2--3---3-3--4---4-4--4----------|
G|-x---x-x--x---x-x--x---x-x--x---x-x--x---x-x--x----------|
C|-0---0-0--0---0-0--2---2-2--3---3-3--4---4-4--4----------|

D|---------------------------------------------------------|
A|--------0------------------------------------------------|
F|------1--------------------------------------------------|
C|----3----------------------------------------------------|
G|-/4------------------------------------------------------|
C|---------------------------------------------------------|

Then there's a sort of bridge/verse:

D|---------------------------------------------------------|
A|---------------------------------------------------------|
F|---------------------------------------------------------|
C|-4-4-4-4-4-4-/7-7-7-\3-3-3-------------------------------|
G|-x-x-x-x-x-x--x-x-x--x-x-x-------------------------------|
C|-4-4-4-4-4-4-/7-7-7-\3-3-3-------------------------------| x3

D|---------------------------------------------------------|
A|---------------------------------------------------------|
F|---------------------------------------------------------|
C|-0-0-0-0-0-0-2-2-2-3-3-3-4-4-4-4-4-4-4-4-4-4-4-4---------|
G|-x-x-x-x-x-x-x-x-x-x-x-x-x-x-x-x-x-x-x-x-x-x-x-x---------|
C|-0-0-0-0-0-0-2-2-2-3-3-3-4-4-4-4-4-4-4-4-4-4-4-4---------|

Then play another chorus, which this time ends with:

D|---------------------------------------------------------|
A|---------------------------------------------------------|
F|---------------------------------------------------------|
C|-4-4-x-x-x-x-4-4-x-x-x-x---------------------------------|
G|-x-x-x-x-x-x-x-x-x-x-x-x---------------------------------|
C|-4-4-x-x-x-x-4-4-x-x-x-x---------------------------------|

Then you have the solo - add some distortion on for this:

D|-////12----------12----8---7-7h8p5---7p5---7-------------|
A|---------------------------------------------------------|
F|---------------------------------------------------------|
C|---------------------------------------------------------|
G|---------------------------------------------------------|
C|---------------------------------------------------------| x2

D|-7b8----7b8-8--7p5h7---7b8r7--5---7h8p7--5---------------|
A|---------------------------------------------------------|
F|---------------------------------------------------------|
C|---------------------------------------------------------|
G|---------------------------------------------------------|
C|---------------------------------------------------------|

D|-3h4h5-3h4h5-3h4h5-3h4h5-3h4h5-3h4h5-3h4h5-3h4h5-3h4h5---|
A|---------------------------------------------------------|
F|---------------------------------------------------------|
C|---------------------------------------------------------|
G|---------------------------------------------------------|
C|---------------------------------------------------------|

Then there's one final chorus, with the occasional:

D|---------------------------------------------------------|
A|---------------------------------------------------------|
F|-4b5r4--2h4p2h4------------------------------------------|
C|---------------------------------------------------------|
G|---------------------------------------------------------|
C|---------------------------------------------------------|

And there you have it. C&C appreciated.
Tap to rate this tab
# A B C D E F G H I J K L M N O P Q R S T U V W X Y Z