Song name
# A B C D E F G H I J K L M N O P Q R S T U V W X Y Z

Feedback - Ending tab

Help us improve GuitareTab! Take a short survey!
Not too many people know Feedback, so this is a good way to find out about them.

*=hold
p=pull off

                      Repeat Twice
E--3-3---3-3-4*--3-3---3-3-2*-3-3---3-3-4*-3-3---3-3-2*--|
B------0-------------0------------0------------0---------|
G--------------------------------------------------------|
D--------------------------------------------------------|
A--------------------------------------------------------|
E--------------------------------------------------------|

                     Repeat Twice
E------------------------------------------|
B------------------------------------------|
G------------------------------------------|
D----2-0--------2-0------2-0--------2-0----|
A--------3-2*-------3*-------3-2*-------3*-|
E--0----------0--------0----------0--------|

10 Times
E--3p0-------|
B------4-3*--|
G------------|
D------------|
A------------|
E------------|

6 Times
E-11-11-10-9*--10-10-9-8*-|
B-------------------------|
G-------------------------|
D-------------------------|
A-------------------------|
E-------------------------|

6 Times
E----------------------|
B----------------------|
G----------------------|
D----------------------|
A----------------------|
E-9-9-10-11*--11-10-9*-|

E----------------------|
B----------------------|
G----------------------|
D----------------------|
A----------------------|
E-9-9-10-11*Whammy Bar-|
Related for Ending tab