Song name
# A B C D E F G H I J K L M N O P Q R S T U V W X Y Z

Feeder - Dont Bring Me Down tab

Tabbed by: Shiruzu	
Email: letaldj@libero.it

Tuning: Standard 

Guitar 1: Play it trough the whole song
e|---------------------------------------------------|
B|---------------------------------------------------|
G|--1-3---33-XX--1-3---33-XX--1-3--33--XX--1/8--XXXX-|
D|--2-4---44-XX--2-4---44-XX--2-4--44--XX--2/9--XXXX-|
A|--2-4---44-XX--2-4---44-XX--2-4--44--XX--2/9--XXXX-|
E|--0-2---22-XX--0-2---22-XX--0-2--22--XX--0/7--XXXX-|

Guitar 2: play it at 1st and 2nd chorus then till the end
e|-------------------------------------------------------------|
B|-------------------------------------------------------------|
G|--9h11-11-11-11---9h11-11-11-11---9h11-11-11-11---9h11--14b--|
D|-------------------------------------------------------------|
A|-------------------------------------------------------------|
E|-------------------------------------------------------------|

that's simple. hope it's right. Rate it pliz
Tap to rate this tab
# A B C D E F G H I J K L M N O P Q R S T U V W X Y Z