Song name
# A B C D E F G H I J K L M N O P Q R S T U V W X Y Z

Feeder - Elegy tab

SONG: ELEGY by Feeder (swim V2 and POPY cd's)
TABBED BY: ALEX BALL (AL_Fish18@hotmail.com), Posted By chinko

E|----------------------------------|
B|-----3---3---1--1-----0h-1p-0-----|  First time
G|-------0---0------0-----------0---|
D|----------------------------------|
A|--0----------0------0-------------|
E|----------------------------------|

E|----------------------------------|
B|-----3---3---1--1-----3s-5s-3-----|  Second time
G|-------0---0------0---------------|
D|----------------------------------|
A|--0----------0------0-------------|
E|----------------------------------|

LINK TO CHORUS:

Pick around these chords:

E|--0--2--|
B|--3--3--|
G|--0--2--|
D|--2--0--|
A|--3-----|
E|--------|

CHORUS:

GTR 1:

Emaj, Dmaj

GTR 2:

Play this over each Emaj chord:

E|------7--|
B|----7----|
G|--9------|
D|---------|
A|---------|
E|---------|
Tap to rate this tab
# A B C D E F G H I J K L M N O P Q R S T U V W X Y Z